Oops, an error
Loading. Please wait.

Cricket Tab

version 2
version 2

Whole song

1,046 views 1 this week
no commentswrite comment
1 2 3 4 5
2 more votes to show rating
add to favorites
launch autoscroll
font size
0
reset
how to read this tab
guitar tuner
×
Best way to learn
"Cricket"
Autoscroll
slow
fast
+/-
esc
set tempo
stop
this song rocks beond beleif! so here you go, im not 100% but it sounds good so. . . .yea

E-----------------------------------------------------|
B-----------------------------------------------------|
G---------0-----------------0-------------------0-2---|
D-0-2-4-2---4-2-0-----2-4-2---4-2-0-------0-2-4-----4-|
A-------------------4-----------------2-4-------------|
E-----------------------------------------------------|


E--------------|
B--------------|
G--------------|
D--------------|   x2
A-0-4-0-5-4-0--|
E--------------|

  D             A             Bm            A
E-----2-------|-----0-------|-----2-------|-----0-------|
B-----3-------|-----2-------|-----3-------|-----2-------|
G---2---2---2-|---2---2---2-|---4---4---4-|---2---2---2-|
D-0-------0---|---------2---|---------4---|---------2---|   x4 
A-------------|-0-----------|-2-----------|-0-----------|
E-------------|-------------|-------------|-------------|

  G             A             D       A         Bm
E-----3-------|-----0-------|-------2-------0-|-----2-------|
B-----0-------|-----2-------|-----3-------2---|-----3-------|
G---0---0---0-|---2---2---2-|---2-------2-----|---4---4---4-|
D---------0---|---------2---|-0---------------|---------4---|   x4
A-------------|-0-----------|---------0-------|-2-----------|
E-3-----------|-------------|-----------------|-------------|


from stay-c!
Suggest correction
Give kudos to tab author, rate the tab!
1 2 3 4 5
comments
print report bad tab
guest
You may want to rate the tab now too:
select rating
Wanna post a correction for this tab? Suggest correction