Oops, an error
Loading. Please wait.

Rip intro tab

76 views 1 this week
no commentswrite comment
1 2 3 4 5
3 more votes to show rating
add to favorites
×
Save as Personal and add changes to this tab that will be seen only by you. Learn more ›
×
You can save this tab as Personal to edit and correct it or add notes. All changes will be seen only by you. Learn more »
launch autoscroll
font size
0
reset
how to read this tab
guitar tuner
edit
Autoscroll
slow
fast
+/-
esc
set tempo
stop
About this tab version
The actual tab of the song. Some of it (especially in the chorus) is hard to differentiate due to distortion and most likely uses two guitars (hence the optional playing). I'm completely open to constructive criticism :). Was this info helpful? Yes No
[Intro]
e|----------------------------------------------|
B|---------------------9-------9-6\4-----4------|
G|-------------------6---6---6---------4---4---4|
D|--4--------6-----8-------8---------6-------6--|
A|----------------------------------------------|
E|----------------------------------------------|

e|--------------------------------|
B|----------9-------9-6\4-----4---|
G|--------6---6---6---------4---4-|
D|--4-6-8-------8---------6-------|
A|--------------------------------|
E|--------------------------------|

[First Verse]
        You're the air inside my lungs...
e|------------------------------------|
B|-----------9-------9-6\4----4-------|
G|---------6---6---6--------4---4----4|
D|--4-6--8-------8---------6-------6--| (x3)
A|------------------------------------|
E|------------------------------------|

Through my hair   I'm feeling fine  Feeling fine   Darlin' tell me...
e|------------------------------------------------------------|
B|-----------9-------9-6/4-----4-------4-------4--------------|
G|---------6---6---6---------4---4---4---4---4---4---4--------|
D|--4-6-8-------8---------6-------6-------6-------6---4h6-4h6-| 
A|------------------------------------------------------------|
E|------------------------------------------------------------|

[Chorus]
   Why can't we just live our lives this way...                         
e|-------------------------------------|
B|-----9---7h9-7h9-7-6\4-----4---7-9-9-|
G|---6---6-----------------4---4-------|
D|-8---------------------6-------------|   (Optionally repeat the previous structure instead of 7 9 9)
A|-------------------------------------|
E|-------------------------------------|

Knowing everyday, that the love inide my heart...
e|-------------------------------------|
B|-----9---7h9-7h9-7-6\4-----4---9-7p6-|
G|---6---6-----------------4---4-------|
D|-8---------------------6-------------| 
A|-------------------------------------|
E|-------------------------------------|

Us against the world...
e|-------------------------------------|
B|-----9---7h9-7h9-7-6\4-----4---7-9-9-|
G|---6---6-----------------4---4-------|
D|-8---------------------6-------------| 
A|-------------------------------------|
E|-------------------------------------|

These words I cannot hide,           I love you wish you were al-
e|-------------------------------------------------------|
B|-----9---7h9-7h9-7-6\4-----4-------4-------4-------4---|
G|---6---6-----------------4---4---4---4---4---4---4---4-|
D|-8---------------------6-------6-------6-------6-------| 
A|-------------------------------------------------------|
E|-------------------------------------------------------|

ive...
e|---------2---------------|
B|-----2-------2-------2---|
G|---3---3---3---3---3---3-|
D|-4---------------4-------| (Barre second fret)
A|-------------------------|
E|-------------------------|

[Second Verse]
In    my    Dreams I try to find you but you're gone...
e|-------------------------------------------|
B|------------------9-------9-6\4-----4------|
G|----------------6---6---6---------4---4---4|
D|--4-----6-----8-------8---------6-------6--|
A|-------------------------------------------|
E|-------------------------------------------|

Before, you're noone's dream girl...
e|-----------------------------------|
B|----------9-------9-6\4-----4------|
G|--------6---6---6---------4---4---4|
D|--4-6-8-------8---------6-------6--| (x2)
A|-----------------------------------|
E|-----------------------------------|

My sad heart. You make me cry, Make me cry... Darlin' tell me
e|------------------------------------------------------------|
B|-----------9-------9-6\4-----4-------4-------4--------------|
G|---------6---6---6---------4---4---4---4---4---4---4--------|
D|--4-6-8-------8---------6-------6-------6-------6---4h6-4h6-| 
A|------------------------------------------------------------|
E|------------------------------------------------------------|

[Chorus]
Why can't we just live our lives this way...                         
e|-------------------------------------|
B|-----9---7h9-7h9-7-6\4-----4---7-9-9-|
G|---6---6-----------------4---4-------|
D|-8---------------------6-------------|   (Optionally repeat the previous structure instead of 7 9 9)
A|-------------------------------------|
E|-------------------------------------|

Knowing everyday, that the love inide my heart...
e|-------------------------------------|
B|-----9---7h9-7h9-7-6\4-----4---9-7p6-|
G|---6---6-----------------4---4-------|
D|-8---------------------6-------------| 
A|-------------------------------------|
E|-------------------------------------|

Us against the world...
e|-------------------------------------|
B|-----9---7h9-7h9-7-6\4-----4---7-9-9-|
G|---6---6-----------------4---4-------|
D|-8---------------------6-------------| 
A|-------------------------------------|
E|-------------------------------------|

These words I cannot hide,           I love you wish you were al-
e|-------------------------------------------------------|
B|-----9---7h9-7h9-7-6\4-----4-------4-------4-------4---|
G|---6---6-----------------4---4---4---4---4---4---4---4-|
D|-8---------------------6-------6-------6-------6-------| 
A|-------------------------------------------------------|
E|-------------------------------------------------------|
                        
[Outro]
ive...                         I
e|---------2---------------2-------|
B|-----2-------2-------2-------2---|
G|---3---3---3---3---3---3---3---3-|
D|-4---------------4---------------| (Barre second fret)
A|---------------------------------|
E|---------------------------------|

Miss you, I love you wish you were al-
e|---------4---------------4-------|
B|-----4-------4-------4-------4---|
G|---4---4---4---4---4---4---4---4-|
D|-6---------------6---------------| (Barre fourth fret)
A|---------------------------------|
E|---------------------------------|

ive...                         
e|---------2-----------------|
B|-----2-------2-------2-----|
G|---3---3---3---3---3---3---|
D|-4---------------4-------4-| (Barre second fret)
A|---------------------------|
E|---------------------------|

************************************

| \  Slide down
| /  Slide up
| h  Hammer-on
| p  Pull-off

************************************

            
            
Suggest correction
Creating personal tab
Creating personal tab
You can edit any tab online and save it as your Personal.

You can edit, replace or remove any tab part or add personal notes – all changes will be seen only by you.

Personal tabs can be accessed anytime from any device, even offline.
Learn more »
Give kudos to tab author, rate the tab!
1 2 3 4 5
comments
print report bad tab
guest
You may want to rate the tab now too:
select rating
Wanna post a correction for this tab? Suggest correction