Oops, an error
Loading. Please wait.

1000 Deaths bass

445 views 3 this week
no commentswrite comment
1 2 3 4 5
2 more votes to show rating
add to favorites
×
Save as Personal and add changes to this tab that will be seen only by you. Learn more ›
×
You can save this tab as Personal to edit and correct it or add notes. All changes will be seen only by you. Learn more »
launch autoscroll
font size
0
reset
guitar tuner
edit
Autoscroll
slow
fast
+/-
esc
set tempo
stop
Author
                                      1000 Deaths
                                        D'Angelo
                                    

Bass                                                               D'Angelo
                                                              Kendra Foster

As played by Pino Palladino

In 2/2

Intro

14 Bars Rest

Slap

G||------------------|-6---------------|-----------------|------------------||
D||o-----------------|-----------------|-----------------|-----------------o||
A||o-----------------|-----------------|-----------------|-----------------o||
E||------4-----------|-------------0---|-----------------|------------------||
     Q   Q   Q   Q     Q   H       Q     W                 W

Verse 1

G|-----------------|-6---------------|-----------------|-----------------|
D|-----------------|-----------------|-----------------|-----------------|
A|-----------------|-----------------|-----------------|-----------------|
E|-----4-----------|-------------0---|-----------------|-----------------|
   Q   Q   Q   Q     Q   H       Q     W                 W

G|-----------------|-6---------------|-----------------|-----------------|
D|-----------------|-----------------|-----------------|-----------------|
A|-----------------|-----------------|-----------------|-----------------|
E|-----4-----------|---------0---2---|-----------------|-----------------|
   Q   Q   Q   Q     Q   Q   Q   Q     W                 W

G|-----------------|-6---------------|-----------------|-----------------|
D|-----------------|-----------------|-----------------|-----------------|
A|-----------------|-----------------|-----------------|-----------------|
E|-----4-----------|---------4---0---|-4---------------|-----------------|
   Q   Q   Q   Q     Q   Q   Q   Q     W                 W

G|-----------------|-6---------------|-----------------|-----------------|
D|-----------------|-----------------|-----------------|-----------------|
A|-----------------|-----------------|-----------------|-----------------|
E|-----4-----------|-------------0---|-----------------|-----------------|
   Q   Q   Q   Q     Q   H       Q     W                 W

G|-----------------|-6---------------|-----------------|-----------------|
D|-----------------|-----------------|-----------------|-----------------|
A|-----------------|-----------------|-----------------|-----------------|
E|-----4-----------|---------4---0---|-4---------------|-----------------|
   Q   Q   Q   Q     Q   Q   Q   Q     W                 W

G|-----------------|-----------------|-----------------|-----------------|
D|-----------------|/4--/4-----------|-----------------|-----------------|
A|-------------4/--|-----------------|-----------------|-----------------|
E|-----------------|---------0---0---|-----------------|-----------------|
   Q   Q   Q   Q     Q   Q   Q   Q     W                 W

G|-----------------|-6---5---3-5-----|-----------------|-----------------|
D|-----------------|-----------------|-----------------|-----------------|
A|-----------------|-----------------|-----------------|-----------------|
E|-----------------|-----------------|-----------------|-------------4\--|
   W                 Q   Q   E Q.      W                 H       Q   Q

G|-----------------|-6---------------|-----------------|-----------------|
D|-----------------|-----------------|-----------------|-----------------|
A|-----------------|-----------------|-----------------|-----------------|
E|-----4-----------|-------------0---|-----------------|-----------------|
   Q   Q   Q   Q     Q   H       Q     W                 W

G|-----------------|-6---------------|-----------------|-----------------|
D|-----------------|-----------------|-----------------|-----------------|
A|-----------------|-----------------|-----------------|-----------------|
E|-------4-4-------|-----------------|-6---------------|-----------------|
   Q   E E Q   Q     Q   H       Q     W                 W

G|-----------------|-----------------|-----------------|-----------------|
D|-----------------|/4--/4-----------|-----------------|-----------------|
A|-------------4/--|-----------------|-----------------|-----------------|
E|-----------------|---------0---0---|-----------------|-----------------|
   Q   Q   Q   Q     Q   Q   Q   Q     W                 W

G|-----------------|-6---5---3-5-----|-----------------|-----------------|
D|-----------------|-----------------|-----------------|-----------------|
A|-----------------|-----------------|-----------------|-----------------|
E|-----------------|-----------------|-2---------------|-----------------|
   W                 Q   Q   E Q.      W                 W

G|-----------------|-----------------|-----------------|-----------------|
D|-----------------|/4--/4-----------|-----------------|-----------------|
A|-------------4/--|-----------------|-----------------|-----------------|
E|-----------------|---------0---0---|-----------------|-----------------|
   Q   Q   Q   Q     Q   Q   Q   Q     W                 W

G|-----------------|-6---5---3-5-----|-----------------|-----------------|
D|-----------------|-----------------|-----------------|-----------------|
A|-----------------|-----------------|-----------------|-----------------|
E|-----------------|-----------------|-6---------------|-----------------|
   W                 Q   Q   E Q.      W                 W

G|-----------------|-----------------|-------6---------|
D|-----------------|-----------------|-----------------|
A|-----------------|-----------------|-------------2-3-|
E|-----------------|-----------------|-----------------|
   W                 W                 Q   E E Q   E E

Chorus 1

G|-----------------|-----------------|-----------------|-----------------|
D|-----------------|-----------------|-----------------|-----------------|
A|-4-3-------------|-----------------|-----------5---4-|(4)----------3-4-|
E|-----4-3-1-2---2-|(2)----------2-3-|-4-3-2-4-5-------|-----------------|
   E E E E E Q   E   E E H       E E   E E E E E Q   E   E E H       E E

G|-----------------|-----------------|-----------------|-----------------|
D|-----------------|-------------4-6-|-7-6-4-6---------|-----------------|
A|-5-4-------------|-----------------|-----------5---4-|(4)----------2-3-|
E|-----4-3-2-------|-----------------|-----------------|-----------------|
   E E E E E Q   E   H.          E E   E E E E E Q   E   E E H       E E

G|-----------------|-----------------|-----------------|-----------------|
D|-----------------|-----------------|-----------------|-----------------|
A|-4-3-------------|-----------------|-----------5---4-|(4)----------3-4-|
E|-----4-3-1-2---2-|(2)----------2-3-|-4-3-2-4-5-------|-----------------|
   E E E E E Q   E   E E H       E E   E E E E E Q   E   E E H       E E

G|-----------------|-----------------|-----------------|-----------------|
D|-----------------|-------------4-6-|-7-6-4-6---------|-----------------|
A|-5-4-------------|-----------------|-----------5---4-|(4)----------2-3-|
E|-----5-4-2-1---2-|(2)--------------|-----------------|-----------------|
   E E E E E Q   E   H.          E E   E E E E E Q   E   E E H       E E

G|-----------------|-----------------|-----------------|-----------------|
D|-----------------|-----------------|-----------------|-----------------|
A|-4-3-------------|-----------------|-----------5---4-|(4)----------3-4-|
E|-----4-3-1-2---2-|(2)----------2-3-|-4-3-2-4-5-------|-----------------|
   E E E E E Q   E   E E H       E E   E E E E E Q   E   E E H       E E

G|-----------------|-----------------|-----------------|-----------------|
D|-----------------|-------------4-6-|-7-6-4-6---------|-----------------|
A|-5-4-------------|-----------------|-----------5---4-|(4)--------------|
E|-----5-4-1-----2-|(2)--------------|-----------------|-----------------|
   E E E E Q.    E   H.          E E   E E E E E Q   E   E E H.

G|-----------------|
D|-----------------|
A|-----------------|
E|-----------------|

Interlude 

G|-----------------|-----------------|-----------------|-----------------|
D|-----------------|/4--/4-----------|-----------------|-----------------|
A|-------------4/--|-----------------|-----------------|-----------------|
E|-----------------|---------0---0---|-----------------|-----------------|
   Q   Q   Q   Q     Q   Q   Q   Q     W                 W

G|-----------------|-6---5---3-5-----|-----------------|-----------------|
D|-----------------|-----------------|-----------------|-----------------|
A|-----------------|-----------------|-----------------|-----------------|
E|-----------------|-----------------|-6---------------|-----------------|
   W                 Q   Q   E Q.      W                 W

Verse 2

4 Bars Rest

G|-----------------|-6---------------|-----------------|-----------------|
D|-----------------|-----------------|-----------------|-----------------|
A|-----------------|-----------------|-----------------|-----------------|
E|-----4-----------|-------------0---|-----------------|-----------------|
   Q   Q   Q   Q     Q   H       Q     W                 W


G|-----------------|-6---------------|-----------------|-----------------|
D|-----------------|-----------------|-----------------|-----------------|
A|-----------------|-----------------|-4---------------|-----------------|
E|-----4-----------|-------------0---|-----------------|-----------------|
   Q   Q   Q   Q     Q   H       Q     W                 W

G|-----------------|-----------------|-----------------|-----------------|
D|-----------------|/4--/4-----------|-----------------|-----------------|
A|-------------4/--|-----------------|-----------------|-----------------|
E|-----------------|---------0---0---|-----------------|-----------------|
   Q   Q   Q   Q     Q   Q   Q   Q     W                 W

G|-----------------|-6---5---3-5-----|-----------------|-----------------|
D|-----------------|-----------------|-----------------|-----------------|
A|-----------------|-----------------|-----------------|-----------------|
E|-----------------|-----------------|-6---------------|-----------------|
   W                 Q   Q   E Q.      W                 W

G|-----------------|-6---------------|-----------------|-----------------|
D|-----------------|-----------------|-----------------|-----------------|
A|-----------------|-----------------|-----------------|-----------------|
E|-----4-----------|-------------0---|-----------------|-----------------|
   Q   Q   Q   Q     Q   H       Q     W                 W

G|-----------------|-6---------------|-----------------|-----------------|
D|-----------------|-----------------|-----------------|-----------------|
A|-----------------|-----------------|-----------------|-----------------|
E|-----4-----------|-------------0---|-6---------------|-----------------|
   Q   Q   Q   Q     Q   H       Q     W                 W

G|-----------------|-----------------|-----------------|-----------------|
D|-----------------|/4--/4-----------|-----------------|-----------------|
A|-------------4/--|-----------------|-----------------|-----------------|
E|-----------------|---------0-0-0---|-----------------|-----------------|
   Q   Q   Q   Q     Q   Q   E E Q     W                 W

G|-----------------|-6---5---3-5-----|-----------------|-----------------|
D|-----------------|-----------------|-----------------|-----------------|
A|-----------------|-----------------|-----------------|-----------------|
E|-----------------|-----------------|-4---------------|-----------------|
   W                 Q   Q   E Q.      W                 W

G|-----------------|-----------------|-----------------|-----------------|
D|-----------------|/4--/4-----------|-----------------|-----------------|
A|-------------4/--|-----------------|-----------------|-----------------|
E|-----------------|---------0-0-0---|-----------------|-----------------|
   Q   Q   Q   Q     Q   Q   E E Q     W                 W

G|-----------------|-6---5---3-5-----|-----------------|-----------------|
D|-----------------|-----------------|-----------------|-----------------|
A|-----------------|-----------------|-----------------|-----------------|
E|-----------------|-----------------|-6---------------|-----------------|
   W                 Q   Q   E Q.      W                 W

G|-----------------|-----------------|-------6---------|
D|-----------------|-----------------|-----------------|
A|-----------------|-----------------|-------------2-3-|
E|-----------------|-----------------|-----------------|
   W                 W                 Q   E E Q   E E

Chorus 2

G|-----------------|-----------------|-----------------|-----------------|
D|-----------------|-----------------|-----------------|-----------------|
A|-4-3-------------|-----------------|-----------5---4-|(4)----------3-4-|
E|-----4-3-1-2---2-|(2)----------2-3-|-4-3-2-4-5-------|-----------------|
   E E E E E Q   E   E E H       E E   E E E E E Q   E   E E H       E E

G|-----------------|-----------------|-----------------|-----------------|
D|-----------------|-------------4-6-|-7-6-4-6---------|-----------------|
A|-5-4-------------|-5/--------------|-----------5---4-|(4)----------2-3-|
E|-----4-2-1-2---2-|-----------------|-----------------|-----------------|
   E E E E E Q   E   H.          E E   E E E E E Q   E   E E H       E E

G|-----------------|-----------------|-----------------|-----------------|
D|-----------------|-----------------|-----------------|-----------------|
A|-4-3-------------|-----------------|-----------5---4-|(4)----------3-4-|
E|-----4-3-1-2---2-|(2)----------2-3-|-4-3-2-4-5-------|-----------------|
   E E E E E Q   E   E E H       E E   E E E E E Q   E   E E H       E E

G|-----------------|-----------------|-----------------|-----------------|
D|-----------------|-------------4-6-|-7-6-4-6---------|-----------------|
A|-5-4-------------|-----------------|-----------5---4-|(4)----------2-3-|
E|-----5-4-2-1---2-|(2)--------------|-----------------|-----------------|
   E E E E E Q   E   H.          E E   E E E E E Q   E   E E H       E E

G|-----------------|-----------------|-----------------|-----------------|
D|-----------------|-----------------|-----------------|-----------------|
A|-4-3-------------|-----------------|-----------5---4-|(4)----------3-4-|
E|-----4-3-1-2---2-|(2)----------2-3-|-4-3-2-4-5-------|-----------------|
   E E E E E Q   E   E E H       E E   E E E E E Q   E   E E H       E E

G|-----------------|-----------------|-----------------|-----------------|
D|-----------------|-------------4-6-|-7-6-4-6---------|-----------------|
A|-5-4-------------|-----------------|-----------5---4-|(4)--------------|
E|-----5-4-1-----2-|(2)--------------|-----------------|-----------------|
   E E E E Q.    E   H.          E E   E E E E E Q   E   E E H.

Solo/Outro

21 Bars Rest
                                                                          x4
G||------------------|-6---------------|-----------------|------------------||
D||o-----------------|-----------------|-----------------|-----------------o||
A||o-----------------|-----------------|-----------------|-----------------o||
E||------4-1---------|-------------0-1-|-2---------------|------------------||
     Q   E E Q   Q     Q   H       E E   E E H.            W


Key to rhythm notations:

W - Whole Note/Semi-Brieve
H - Half Note/Minim
Q - Quarter Note/Crotchet       Q. - Dotted Quarter Note
E - Eight Note/Quaver           E. - Dotted Eight Note
S - Sixteenth Note/Semi-Quaver  S. - Dotted Sixteenth Note

            
            
Suggest correction
Creating personal tab
Creating personal tab
You can edit any tab online and save it as your Personal.

You can edit, replace or remove any tab part or add personal notes – all changes will be seen only by you.

Personal tabs can be accessed anytime from any device, even offline.
Learn more »
Give kudos to tab author, rate the tab!
1 2 3 4 5
comments
print report bad tab
guest
You may want to rate the tab now too:
select rating
Wanna post a correction for this tab? Suggest correction