Oops, an error
Loading. Please wait.

Aint That Easy bass

version 1
version 1

Whole song

Interactive

484 views 1 this week
no commentswrite comment
1 2 3 4 5
2 more votes to show rating
add to favorites
×
Save as Personal and add changes to this tab that will be seen only by you. Learn more ›
×
You can save this tab as Personal to edit and correct it or add notes. All changes will be seen only by you. Learn more »
launch autoscroll
font size
0
reset
guitar tuner
edit
Autoscroll
slow
fast
+/-
esc
set tempo
stop
Author
                                     Ain't That Easy
                                        D'Angelo
                                    

Bass                                                               D'Angelo
                                                                      Q-Tip
                                                              Kendra Foster

As played by Pino Palladino

In 2/2

Intro

   S P     S P
G|-----------------|-----------------|-----7-------2---|-----3-------6---|
D|---7-------9-----|-----------------|-----------------|-----------------|
A|-----------------|-----------------|-----------------|-----------------|
E|/5------/7-------|-----------------|-6-------1-------|-2-------5-------|
   E Q.    E Q.      W                 Q   Q   Q   Q     Q   Q   Q   Q

G|-----7-------11--|-----------------|-----7-------2---|-1---4-4-9---13--|
D|-------------11--|-----------------|-----------------|---------9---14--|
A|-----------------|-----------------|-----------------|-----------------|
E|-6-------11------|-----------------|-6-------1-------|-----------------|
   Q   Q   Q   Q     W                 Q   Q   Q   Q     Q   E E Q   Q

G|-11--------------|-----------------|
D|-9---------------|-----------------|
A|-----------------|-----------------|
E|-----------------|---------7\------|
   W                 H       H

Verse 1

G|-----------------|-----------------|-----------------|-----------------|
D|-----------------|-----------------|-----------------|-----------------|
A|-----------------|-----------------|-----------------|-2---2--/2---2---|
E|-2---2---2---2---|-x---2---x---2---|-----2-----0-2---|-----------------|
   E E Q   E E Q     E E Q   E E Q     Q   Q   E E Q     E E Q   E E Q

G|-----------------|-----------------|-----------------|-----------------|
D|-----------------|-----------------|-----------------|-3---3-----------|
A|-----------------|-----------------|-----------------|-----------------|
E|-6---6---6---6---|-6---6---7-4-6---|-6---6---6---6---|---------1---1---|
   E E Q   E E Q     E E Q   E E Q     E E Q   E E Q     Q   Q   Q   Q

G|-----------------|-----------------|-----------------|-----------------|
D|-----------------|-----------------|-----------------|-----------------|
A|-----------------|-----------------|-------------0-1-|-2---2---2---2---|
E|-2---2---2---2---|-x---2---x---2---|-2---2---2-------|-----------------|
   E E Q   E E Q     E E Q   E E Q     E E Q   E E E E   E E Q   E E Q

G|-----------------|-----------------|-----------------|-----------------|
D|-----------------|---------6-------|-6-7-------------|-----------------|
A|-----------------|-----------------|-----------------|-----------------|
E|-6---6--/7---6---|-6---6-------6---|-----6---6---6---|-1---1---1---1---|
   E E Q   E E Q     E E Q   E E Q     S E.Q   E E Q     Q   Q   Q   Q

Pre-Chorus 1

G|-----------------|-----------------|-----------------|-----------------|
D|-----------------|-----------4-6---|-----------------|-----------------|
A|-2---2---2---2---|-2---2---6-------|-----------------|-------------0-1-|
E|-----------------|-----------------|-2---2---2---2---|-2---------------|
   E E Q   E E Q     E E Q   E.S Q     E E Q   E E Q     E E Q   E E Q E

G|-----------------|-------------------|-----------------|-----------------|
D|-----------------|-------------------|-----------------|----/8\--6---6---|
A|-1---1---1---1---|-1---1---1---1-1-4-|-6---6---6---6---|-6-------------6-|
E|-----------------|-------------------|-----------------|-----------------|
   E E Q   E E Q     E E Q   E S S E E   E E Q   E E Q     Q   Q   Q   E E 

G|-----------------|-----------------|-----------------|-----------------|
D|-----------------|-----------4-6---|-7---4-----------|-----------------|
A|-2---2---2---2---|-2---2--/6-------|-----------------|-----------------|
E|-----------------|-----------------|---------2-2-2\--|-2---2-----2-5---|
   E E Q   E E Q     E E Q   E E Q     Q   Q   E.S Q     E E Q   E.S Q

G|-----------------|-----------------|-------------------|-----------------|
D|-----------------|-----------------|---8---------------|-----------------|
A|-----------------|-----------------|-------------------|---------5-------|
E|-x---6---6---6---|-6---6---6---6---|-x---6-6---6---6---|-6---8-----------|
   E E Q   E E Q     E E Q   E E Q     S S E Q   E E Q     Q   Q   Q   Q

Chorus 1

G|-----------------|-----------------|-----------------|-----------------|
D|-----------------|-----------------|-----------------|-----------------|
A|-6-------9---x---|-----------------|-4---x---7-------|-----------------|
E|-----------------|-----------------|-------------4---|-7---------------|
   Q   Q   Q   Q     W                 Q   Q   Q   Q     Q   H.

G|-----------------|-----------------|-----9-----------|-----------------|
D|-----------------|-----------------|-----------------|-----------------|
A|-4---5---6---7---|-8---------------|---------------x-|-----------------|
E|-----------------|---------------5-|-7---------------|-7---7-----------|
   E E Q   E E Q     Q   H       E E   Q   Q   Q   E E   Q   Q   H

G|-----------------|-6---------------|-----------------|-6---------------|
D|-------------6/8-|-----------------|-------------6/8-|-----------------|
A|-6---8---9-------|-----------------|-4---6---7-------|-----------------|
E|-----------------|-----------------|-----------------|-----------------|
   Q   Q   Q   E E   Q   Q   H         Q   Q   Q   E E   Q   Q   H

G|/15--------------|-----------------|-----------------|-----------------|
D|/15--------------|-----------------|-------------8---|-----------------|
A|-----------------|-----------------|-----------8-----|-----------------|
E|-----0-----0-1---|-2---3---4---5---|-6---------------|-x---x---5\------|
   Q   Q   E.S Q     Q   Q   Q   Q     H       E.S Q     Q   Q   Q

Verse 2

G|-----------------|-----------------|-----------------|-8---------------|
D|-----------------|-----------------|-----------------|-----------------|
A|-----------------|-----------------|-----------------|-----7---9-------|
E|-2---2---2---2---|-2---2---2---2---|-2---2---2---2/--|-------------7---|
   E E Q   E E Q     E E Q   E E Q     E E Q   E E Q     E E Q   Q   Q   

G|-----------------|-----------------|-13\-------------|-----------------|
D|-----------------|-----------------|-----------------|/3---3---3-------|
A|-----------------|-----------------|-----------------|-----------------|
E|-6---6---6---6---|-6---6---6---6/--|-----6---6---6---|-------------1---|
   E E Q   E E Q     E E Q   E E Q     Q   Q   E E Q     Q   Q   Q   Q

G|-----------------|-----------------|-----------------|-----------------|
D|-----------------|-----------------|-----------------|-----------------|
A|-----------------|-----------------|-----------------|-2---2---2---2---|
E|-2---2---2---2---|-x---2---x---2---|-2---2---x---2---|-----------------|
   E E Q   E E Q     E E Q   E E Q     E E Q   E E Q     E E Q   E E Q

G|-----------------|--------------12-|-13--------------|-----------------|
D|-----------------|------------10---|-----------------|-----------------|
A|-----------------|-----------------|-----------------|-----------------|
E|-6---6--/6---6---|-6---6---6-------|-----6---6---6---|-1---1---1---1---|
   E E Q   E E Q     E E Q   E E E E   E E Q   E E Q     Q   Q   Q   Q

G|-----------------|-----------------|-----------------|-----------------|
D|-----------------|-----------------|-----------------|-----------------|
A|-----------------|-----------------|-----------------|-----------------|
E|-2---2---2---2---|-2---2---2/--2---|-2---2---5---2/--|-7---7---7---7---|
   E E Q   E E Q     E E Q   E E Q     E E Q   E E Q     E E Q   E E Q

G|-----------------|-----------------|-----------------|-----------------|
D|-----------------|-----------8-6---|-----------------|-----------------|
A|-----------------|-----------------|-----------------|-----------------|
E|-6---6---6---6---|-6---6-----------|-6---6---6---6---|-1---1---1---1---|
   E E Q   E E Q     E E Q   E E Q     E E Q   E E Q     Q   Q   Q   Q

G|-----------------|-----------------|-----------------|-----------------|
D|-----------------|-----------------|-----------------|-----------------|
A|-----------------|-----------------|-----------------|-----------------|
E|-2---2---2---2---|-2---2---2---2---|-2---2---2---2/--|-7---7---7---7---|
   E E Q   E E Q     E E Q   E E Q     E E Q   E E Q     E E Q   E E Q

G|-----------------|-----------------|-----------------|-----------------|
D|-----------------|-----------------|-8-6-------------|-3-------3-------|
A|-----------------|-----------------|-----------------|-------------1---|
E|-6---6--/6---6---|-6---6---6---6---|-----6---6---6---|-----1-----------|
   E E Q   E E Q     E E Q   E E Q     S E.Q   E E Q     E E Q   Q   Q

Pre-Chorus 2

G|-----------------|-----------------|-----------------|-----------------|
D|-----------------|-----------4-6---|-7---7---4-2-----|-----------------|
A|-2---2---2---2---|-2---2---6-------|-------------4---|-------------0---|
E|-----------------|-----------------|-----------------|-2---------------|
   E E Q   E E Q     E E Q   E.S Q     E E Q   E.S Q     E E Q   E E Q 

G|-----------------|-----------------|-----------------|-----------------|
D|-----------------|-----------------|-----------------|-----6-8-6---6\--|
A|-1---1---1---1---|-1---1---1---1---|-6---6---6---6---|-6---------------|
E|-----------------|-----------------|-----------------|-----------------|
   E E Q   E E Q     E E Q   E E Q     E E Q   E E Q     Q   S S Q   Q    

G|-----------------|-----------------|-----------------|-----------------|
D|-----------------|-----------4-6---|-7---4-----------|-----------------|
A|-x---2---2---2---|-2---2--/6-------|-----------------|-----------------|
E|-----------------|-----------------|---------2-2-4\--|-2---------2-5---|
   E E Q   E E Q     E E Q   E E Q     Q   Q   E.S Q     E E Q   E.S Q

G|-----------------|-----------------|-------------------|-----------------|
D|-----------------|-----------------|---8---------------|-----------------|
A|-----------------|-----------------|-------------------|---------5/------|
E|-6---6---6---6---|-6---6---6---6---|-x---6-6---6---6---|-6---8-----------|
   E E Q   E E Q     E E Q   E E Q     S S E Q   E E Q     Q   Q   Q   Q

Chorus 2

G|-----------------|-6---------------|-----------------|-6---------------|
D|-------------6-8-|-----------------|-------------6-8-|-----------------|
A|-6---8---9-------|-----------------|-4---6---7-------|-----------------|
E|-----------------|-----------------|-----------------|-----------------|
   Q   Q   Q   E E   Q   Q   H         Q   Q   Q   E E   Q   Q   H

G|-----------------|-----------------|-----------------|-----------------|
D|-------------4---|-3-----------x---|-----8-----6-----|-----------------|
A|-4---5---6-------|---------------2-|-------------8---|-2---3---5-------|
E|-----------------|-----------------|/6---------------|-----------------|
   Q   Q   Q   Q     Q   H       E E   Q   Q   E E Q     Q   Q   H

G|-----------------|-8-10-8----------|-----------------|-6-----------10--|
D|-------------6/8-|--------8--------|-------------4/6-|-------------11--|
A|-6---8---9-------|-----------------|-4---6---7-------|-----------------|
E|-----------------|-----------------|-----------------|-----------------|
   Q   Q   Q   E E   S S  E E E H      Q   Q   Q   E E   Q   Q   Q   Q
                                                _____
                                               |  3  |
G|-----------------|-----------------|-----------------|-----------------|
D|-----------------|-----------------|---------8--6----|-----------------|
A|-----------------|-----------------|---------------8-|-----------------|
E|---6-3---6---3---|-2---3---4---5---|-6---------------|-6---------------|
   E E Q   Q   Q     Q   Q   Q   Q     H       Q  Q  Q   H       H

Bridge

G|-----8-------2---|-----3-------6---|-----7-------11--|-----------------|
D|-----------------|-----------------|-------------11--|-----------------|
A|-----------------|-----------------|-----------------|-----------------|
E|-7-------1-------|-2-------5-------|-6-------11------|-----------------|
   Q   Q   Q   Q     Q   Q   Q   Q     Q   Q   Q   Q     W

G|-----8-------2---|-----3-------6---|-----7-----------|-----------------|
D|-----------------|-----------------|-----------------|-----------------|
A|-----------------|-----------------|-----------------|-----------------|
E|-7-------1-------|-2-------5-------|-6-------x-------|-----------------|
   Q   Q   Q   Q     Q   Q   Q   Q     Q   Q   Q   Q     W

G|-13----------15\-|-10--------------|-----------------|-----------------|
D|-----------------|-----------------|-11--9---8---6---|-----------------|
A|-----------------|-----------------|-----------------|---------6---8---|
E|-12----------14\-|-9---------------|-9---7---6---4---|-4---------------|
   Q   Q   Q   Q     Q   Q   H         Q   Q   Q   Q     Q   Q   Q   Q    

G|-11--10--8---6---|(6)--------------|-6---------------|-----------------|
D|-----------------|-----------------|-----5---6-------|(6)--------------|
A|-9---8---6---4---|(4)--------------|-4---------------|-----------------|
E|-----------------|-----------------|-----3---4-------|(4)----------3---|
   Q   Q   Q   Q     Q   Q   H         Q   Q   H         H.          Q

Pre-Chorus 2

G|-----------------|-----------------|-----------------|-----------------|
D|-----------------|-----------------|-----------------|-----------------|
A|-2---2---2---2---|-2---2---2-2-2---|-----------------|-4---------------|
E|-----------------|-----------------|-2---2---2---2---|-----------------|
   E E Q   E E Q     E E Q   E.S Q     E E Q   E E Q     E E Q   H

G|-----------------|-----------------|-----------------|-----------------|
D|-----------------|-----------------|-----------4-----|---------7-6-----|
A|-1---1---1---1---|-1---1---1---5/6-|-6---6---6---6---|-6-----------6\--|
E|-----------------|-----------------|-----------------|-----------------|
   E E Q   E E Q     E E Q   E E E E   E E Q   E E Q     E E Q   E.S Q    

G|-----------------|-----------------|-------------8-9-|-----------------|
D|-----------------|-----------------|-----------------|-----------------|
A|-2---2---2---2---|-2---2---2---2---|-----------------|-----------------|
E|-----------------|-----------------|-2---2---2-2-----|-2---2-------5---|
   E E Q   E E Q     E E Q   E E Q     E E Q   E E E.S   E E Q   Q   Q

G|-----------------|-----------------|-------------------|-----------------|
D|-----------------|-------------8/--|---8---------------|-----------------|
A|-----------------|-----------------|-------------------|---------5/------|
E|-6---6---6---6---|-6---6---6-------|-x---6-6---5---x---|-6---8-----------|
   E E Q   E E Q     E E Q   E E Q     S S E Q   E E Q     Q   Q   Q   Q

Chorus 3/Outro

G|-----------------|-6---------------|-----------------|-----------------|
D|-------------6-8-|-----------------|-------------6-8-|-8---------8-9---|
A|-6---8---9-------|-----------------|-4---6---7-------|-----------------|
E|-----------------|-----------------|-----------------|-----------------|
   Q   Q   Q   E E   Q   Q   H         Q   Q   Q   E E   Q   Q   E E Q

G|-----------------|-----------------|-----------------|-----------------|
D|-------------4---|-3---------------|-----8-----6-----|-----------------|
A|-4---5---6-------|-----------------|-------------8---|-2---3---5---7---|
E|-----------------|-------------2---|/6---------------|-----------------|
   Q   Q   Q   Q     Q   H       Q     Q   Q   E E Q     Q   Q   Q   Q

G|-----------------|-8-------8-6-----|-----------------|-6---8--15-13----|
D|-------------6/8-|-------------8---|-------------6/8-|-------------13--|
A|-6---8---9-------|-----------------|-4---6---7-------|-----------------|
E|-----------------|-----------------|-----------------|-----------------|
   Q   Q   Q   E E   E E Q   E E Q     Q   Q   Q   E E   Q   Q   E.S E E  

G|------------------|-----------------|-----------------|-----------------|
D|-10-9-------------|-----------------|---------8--6----|-----------------|
A|------------------|-----------------|---------------8-|-------------5/--|
E|-6----1---3---1---|-2---3---4---5---|-6---------------|-6---8-----------|
   E. S Q   Q   Q     Q   Q   Q   Q     H       Q  Q  Q   Q   Q   Q   Q

G|-----------------|---------6-------|-----------------|-6---x-----------|
D|-----------------|-6-6-7-----------|-------------6---|-----------------|
A|-6-------9-------|-------------6---|-4---6---7-------|-----------------|
E|-----------------|-----------------|-----------------|-----------------|
   Q   Q   Q   Q     E.S E E Q   Q     Q   Q   Q   E E   Q   Q   H    

G|-----------------|-----------------|-----------------|-----------------|
D|-------------4---|-3---------------|-----8---x-6-3---|-----------------|
A|-4---5---6-------|-------------2---|-----------------|-2---3---5-------|
E|-----------------|-----------------|/6---------------|-----------------|
   Q   Q   Q   Q     Q   H       Q     Q   Q   E E Q     Q   Q   H

G|-----------------|-6---------------|-----------------|-6-8-------------|
D|-------------6/8-|-----------------|-----------4-6---|-----------------|
A|-6---8---9-------|-----------------|-4-------7-------|-----------------|
E|-----------------|-----------------|-----------------|-----------------|
   Q   Q   Q   E E   E E Q   H   Q     Q   Q   E E E E   E E H.

G|-----------------|-------------6-6-|-----------------|-----------------|
D|---------1---2---|-4---5---6-------|-8---------6-----|-----------------|
A|-2---4-----------|-----------------|-------------8---|---------5/------|
E|-----------------|-----------------|-----------------|-6---8-----------|
   Q   Q   Q   Q     Q   Q   Q   E.S   H       E.S Q     Q   Q   Q   Q

G|-----------------|---5-6-----------|-----------------|-6---x-----------|
D|-----------------|-8---------------|-------------6/--|-----------------|
A|-6---8---9-------|---------6-------|-4---6---7-------|-----------------|
E|-----------------|-----------------|-----------------|-----------------|
   Q   Q   Q   Q     E.S E E Q   Q     Q   Q   Q   Q     Q   Q   H    

G|-----------------|-----------------|-----------------|-----------------|
D|-------------4---|-3---------------|-----------------|-----------------|
A|-4---5---6-------|-------------2---|-----------6-8---|-2---3-------5---|
E|-----------------|-----------------|-6/--------------|-----------------|
   Q   Q   Q   Q     Q   H       Q     Q   Q   E E Q     Q   Q   Q   Q

G|-----------------|-6---------------|-----------------|-6--------------||
D|-------------6/8-|-----------------|-------------6/8-|----------------||
A|-6---8---9-------|-----------------|-4---6---7-------|----------------||
E|-----------------|-----------------|-----------------|----------------||
   Q   Q   Q   E E   E E Q   H   Q     Q   Q   Q   E E   Q   Q   H


Key to rhythm notations:

W - Whole Note/Semi-Brieve
H - Half Note/Minim
Q - Quarter Note/Crotchet       Q. - Dotted Quarter Note
E - Eight Note/Quaver           E. - Dotted Eight Note
S - Sixteenth Note/Semi-Quaver  S. - Dotted Sixteenth Note

            
            
Suggest correction
Creating personal tab
Creating personal tab
You can edit any tab online and save it as your Personal.

You can edit, replace or remove any tab part or add personal notes – all changes will be seen only by you.

Personal tabs can be accessed anytime from any device, even offline.
Learn more »
Give kudos to tab author, rate the tab!
1 2 3 4 5
comments
print report bad tab
guest
You may want to rate the tab now too:
select rating
Wanna post a correction for this tab? Suggest correction