Oops, an error
Loading. Please wait.

Really Love Bass

version 2
version 2

Whole song

  • Has more of the song's 8th note bass lines, more use of the song's original key.

Interactive

247 views 12 this week
no commentswrite comment
1 2 3 4 5
3 more votes to show rating
add to favorites
launch autoscroll
font size
0
reset
guitar tuner
×
Best way to learn
"Really Love"
Autoscroll
slow
fast
+/-
esc
set tempo
stop
Author
Difficulty
  follow
intermediate
About this tab version
Has more of the song's 8th note bass lines, more use of the song's original key. Was this info helpful? Yes No
[Pick-up to Acoustic Guitar Melody] 1:34
[Intro]
  + 3 + 4 +  1 + 2 + 3 + 4  +

G|----0-4-0-|2-4-5-9-7-9-11-9-|7-5-4-5-4-2-0---|0-4---4-2-4-5-9-|7-9-7-5-0-2-4-0-|
D|1-2-------|-----------------|--------------4-|----2-----------|----------------|
A|----------|-----------------|----------------|----------------|----------------|
E|----------|-----------------|----------------|----------------|----------------|

G|--2-4-------0-1-|2-4-5-9-7-9-11-9-|7-5-4-2-4-5-4-2-|/4-0---4-2-4-5-9-|
D|4-----1-2-4-----|-----------------|----------------|-----2-----------|
A|----------------|-----------------|----------------|-----------------|
E|----------------|-----------------|----------------|-----------------|

                                                 [Verse]
                                          "When you call my name..." 
G|7-------0-2-4-0-|--2-4-----0-2-4-|--2-4-----0-4-0-|2-4-5-9-7-9-11-9-|
D|--0-2-4---------|4-----1-2-------|4-----1-2-------|-----------------|
A|----------------|----------------|----------------|-----------------|
E|----------------|----------------|----------------|-----------------|

G|7-5-4-5-4-2-0---|0-4---4-5-4-5-9-|7-9-7-5-0-2-4---|--2-4-----0-4-0-|
D|--------------4-|----2-----------|----------------|4-----1-2-------|
A|----------------|----------------|----------------|----------------|
E|----------------|----------------|----------------|----------------|

[Chorus]
G|2-4-5-9-7-9-11-9-|7-5-4-5-4-2-0---|0-4---4-2-4-5-9-|7-9-7-5-4-7-0-4-|
D|-----------------|--------------4-|----2-----------|----------------|
A|-----------------|----------------|----------------|----------------|
E|-----------------|----------------|----------------|----------------|

G|2-4-5-2-------2-|0-2-4-0---2-4---|--------2-5-4---|--0-4-0-2-5-4---|
D|--------0-2-4---|--------4-----1-|2-4-----------1-|2---------------|
A|----------------|----------------|----------------|----------------|
E|----------------|----------------|----------------|----------------|

[Bridge]

G|4-4-4-4---------|2-2-2-2-0-0-0-0-|4-4-4-4---------|2-2-2-2-0-0-0-0-|
D|--------4-4-4-4-|----------------|--------4-4-4-4-|----------------|
A|----------------|----------------|----------------|----------------|
E|----------------|----------------|----------------|----------------|

G|2-2-4-5-7-9-7-9-|7-5-2-0-2-4-5-2-|7-9-7-5-4-7-0---|--2-4-----0-----|
D|----------------|----------------|---------------3|4-----1-2-------|
A|----------------|----------------|----------------|----------------|
E|----------------|----------------|----------------|----------------|

[Verse]
"When you touch me there..."

G|2-4-5-9-7-9-11-9-|7-5-4-5-4-2-0---|0-4---4-2-4-5-9-|7-9-7-5-0-4-0---|
D|-----------------|--------------4-|----2-----------|----------------|
A|-----------------|----------------|----------------|----------------|
E|-----------------|----------------|----------------|----------------|

                   [Chorus]
G|--2-4-------0-4-|2-4-5-9-7-9-11-9-|7-5-4-2-4-7-4-2-|0-4---4-2-2-4---|
D|4-----1-2-4-----|-----------------|----------------|----2-----------|
A|----------------|-----------------|----------------|----------------|
E|----------------|-----------------|----------------|----------------|


G|--------0-2-4-0-|----4-----0-4----|2-5-4-----0-4---|
D|0-2-4-----------|4-----1-2--------|------1-2-------|
A|----------------|-----------------|----------------|
E|----------------|-----------------|----------------|

[Bridge] 3:47

G|4-4-4-4---------|2-2-2-2-0-0-0-0-|4-4-4-4---------|2-2-2-2-0-0-0-0-|
D|--------4-4-4-4-|----------------|--------4-4-4-4-|----------------|
A|----------------|----------------|----------------|----------------|
E|----------------|----------------|----------------|----------------|

G|2-2-4-5-7-9-7-9-|7-5-2-0-2-4-5-2-|7-9-7-5-4-7-0---|--2-4-----0-----|
D|----------------|----------------|---------------3|4-----1-2-------|
A|----------------|----------------|----------------|----------------|
E|----------------|----------------|----------------|----------------|

The rest is all based on the verse and bridge patterns
Suggest correction
Give kudos to tab author, rate the tab!
1 2 3 4 5
comments
print report bad tab
guest
You may want to rate the tab now too:
select rating
Wanna post a correction for this tab? Suggest correction