Oops, an error
Loading. Please wait.

Til Its Done Tutu bass

367 views 18 this week
no commentswrite comment
1 2 3 4 5
3 more votes to show rating
add to favorites
×
Save as Personal and add changes to this tab that will be seen only by you. Learn more ›
×
You can save this tab as Personal to edit and correct it or add notes. All changes will be seen only by you. Learn more »
launch autoscroll
font size
0
reset
guitar tuner
edit
Autoscroll
slow
fast
+/-
esc
set tempo
stop
Author
                                   Til It's Done (Tutu)
                                        D'Angelo
                                    

Bass                                                               D'Angelo
                                                              Kendra Foster

As played by Pino Palladino

In 2/2

Intro

G|-----------------|-----------------|-----------------|-----------------|
D|-----------------|-----------------|-----------------|-----------------|
A|-----------------|-----------------|-----------------|-----------------|
E|-5---------------|(5)--------------|-----------------|-----------------|
   W                 W                 W                 W

G|-----------------|-----------------|-11--------------|-----------------|
D|-----------------|---------9---9---|-----9-----------|-----------------|
A|-----------------|-----7-----------|-----------------|-----------------|
E|-5---------------|(5)--------------|---------0---0---|(0)--------------|
   W                 Q   Q   Q   Q     Q   Q   Q   Q     W

G|-----------------|-----------------|---------11------|-----------------|
D|-----------------|-----------------|-------------9---|---------7-------|
A|-----------------|------------/7---|-7---------------|-7-----7-----7---|
E|-5---------------|(5)--------------|-5---------------|-----------------|
   W                 H.          Q     H       Q   Q     Q.    E Q   Q

G|-----------------|-----------------|-----------------|-----------------|
D|-----------------|-----------------|-----------------|-----------------|
A|-----------------|-----------------|-7-------7-9-----|-7---------------|
E|-5---------------|(5)--------------|-----------------|-----------------|
   W                 W                 H       E Q.      W

G|-----------------|-----------------|
D|-----------------|-----------------|
A|-----------------|-----------------|
E|-----------------|-----------------|
   W                 W

G|---------3-------|-4---3-----------|-----------------|-----------------|
D|-4---------------|-----------------|-2---------------|(2)--------------|
A|-----------------|-----------------|-----------------|-----------------|
E|-----------------|-----------------|-----------------|-----------------|
   H       H         Q   H.            W                 W

G|-----------------|-----------------|-----------------|-----------------|
D|-----------------|-----------------|---------4-------|---------3-------|
A|-0-------2-------|-4-------0-------|-5---------------|-4---------------|
E|-----------------|-----------------|-----------------|-----------------|
   H       H         H       H         H       H         H       H

G|---------3-------|-4---3-----------|-----------------|-----------------|
D|-4---------------|-----------------|-2---------------|(2)--------------|
A|-----------------|-----------------|-----------------|-------------4-2-|
E|-----------------|-----------------|-----------------|-----------------|
   H       H         Q   H.            W                 H.          E E

G|-----------------|-----------------|
D|-----------------|---------3-------|
A|-0-------2-------|-4---------------|
E|-----------------|-----------------|
   H       H         H       H

Verse 1

G|---------3-------|-4---3-----------|-----------------|-----------------|
D|-4---------------|-----------------|-2---------------|(2)--------------|
A|-----------------|-----------------|-----------------|-------------4-2-|
E|-----------------|-----------------|-----------------|-----------------|
   H       H         Q   H.            W                 H.          E E

G|-----------------|-----------------|-----------------|-----------------|
D|-----------------|-----------------|---------4-------|---------3-------|
A|-0-------2-------|-4-------0-------|-5---------------|-4---------------|
E|-----------------|-----------------|-----------------|-----------------|
   H       H         H       H         H       H         H       H

G|---------3-------|-4---3-----------|-----------------|-----------------|
D|-4---------------|-----------------|-2---------------|(2)--------------|
A|-----------------|-----------------|-----------------|-------------4-2-|
E|-----------------|-----------------|-----------------|-----------------|
   H       H         Q   H.            W                 H.          E E

G|-----------------|-----------------|
D|-----------------|---------3-------|
A|-0-------2-------|-4---------------|
E|-----------------|-----------------|
   H       H         H       H

G|-----------------|-----------------|-----------------|-----------------|
D|-----------------|-----------------|-2---------------|(2)--------------|
A|---------1-------|-2---1-----------|-----------------|-----------------|
E|-2---------------|-----------------|-----------------|-----------------|
   H       H         Q   H.            W                 W

G|-----------------|-----------------|-----------------|-----------------|
D|-----------------|---------2-------|-----------------|---------3-------|
A|-0-------2-------|-4---------------|-5---------------|-4---------------|
E|-----------------|-----------------|-----------------|-----------------|
   H       H         H       H         W                 H       H

G|---------3-------|-4---3-----------|-----------------|-----------------|
D|-4---------------|-----------------|-2---------------|-----6-4-2-------|
A|-----------------|-----------------|-----------------|-----------4-2-0-|
E|-----------------|-----------------|-----------------|-----------------|
   H       H         Q   H.            W                 Q   E E E E E E

G|-----------------|-----------------|
D|-----------------|---------3-------|
A|(0)------2-------|-4---------------|
E|-----------------|-----------------|
   H       H         H       H

Interlude 1

G|---------3-------|-4---3-----------|-----------------|-----------------|
D|-4---------------|-----------------|-2---------------|(2)--------------|
A|-----------------|-----------------|-----------------|---------------0-|
E|-----------------|-----------------|-----------------|-----------------|
   H       H         Q   H.            W                 H.          E E

G|-----------------|-----------------|-----------------|-----------------|
D|-----------------|-----------------|-----------------|---------3-------|
A|-0-------2-------|-4-------0-------|-5---------------|-4---------------|
E|-----------------|-----------------|-----------------|-----------------|
   H       H         H       H         W                 H       H

G|---------3-------|-4---3-----------|-----------------|-----------------|
D|-4---------------|-----------------|-2---------------|(2)--------------|
A|-----------------|-----------------|-----------------|-------------0-0-|
E|-----------------|-----------------|-----------------|-----------------|
   H       H         Q   H.            W                 H.          E E

G|-----------------|-----------------|
D|-----------------|---------3-------|
A|-0---0---2-------|-4---------------|
E|-----------------|-----------------|
   Q   Q   H         H       H

Verse 2

G|---------3-------|-4---3-----------|-----------------|-----------------|
D|-4-------------4-|-----------------|-2---------------|(2)--------------|
A|-----------------|-----------------|-----------------|-------4-2-------|
E|-----------------|-----------------|-----------------|-------------0---|
   H       Q.    E   Q   H.            W                 Q.    E Q   Q

G|-----------------|-----------------|--------/9-------|-----------------|
D|-----------------|---------2-------|-----------------|---------3-------|
A|-0-------2-------|-4---------------|-5---------------|-4---------------|
E|-----------------|-----------------|-----------------|-----------------|
   H       H         H       H         H       H         H       H

G|---------3-------|-4---3-----------|-----------------|-----------------|
D|-4---------------|-----------------|-2---------------|(2)--------------|
A|-----------------|-----------------|-----------------|-----------------|
E|-----------------|-----------------|-----------------|-----------------|
   H       H         Q   H.            W                 W

G|-----------------|-----------------|
D|-----------------|-----------------|
A|-0-------2-------|-4---------------|
E|-----------------|---------1-------|
   H       H         H       H

G|---------3-------|-4---3-----------|-----------------|-----------------|
D|-----------------|-----------------|-2---------------|(2)--------------|
A|-----------------|-----------------|-----------------|-----------------|
E|-2---------------|-----------------|-----------------|-------------0---|
   H       H         Q   H.            W                 H.          Q

G|-----------------|-----------------|-----------------|-----------------|
D|-----------------|-----------------|-----------------|-----------------|
A|-0-------2-------|-4-------0-------|-5---------------|-----------------|
E|-----------------|-----------------|---------1-------|-0-------4-------|
   H       H         H       H         H       H         H       H

G|---------3-------|-4---3-----------|-----------------|-----------------|
D|-----------------|-----------------|-2---------------|-----6-4-2-------|
A|-----------------|-----------------|-----------------|-----------4-2---|
E|-2---------------|-----------------|-----------------|-----------------|
   H       H         Q   H.            W                 Q   E E E E Q

G|-----------------|-----------------|
D|-----------------|-----------------|
A|-0-------2-------|-4---------------|
E|-----------------|---------0-------|
   H       H         H       H

G|---------3-------|-4---3-----------|-----------------|-----------------|
D|-----------------|-----------------|-2---------------|(2)--------------|
A|-----------------|-----------------|-----------------|-----------------|
E|-2---------------|-----------------|-----------------|-----------------|
   H       H         Q   H.            W                 W

G|-----------------|-----------------|-----------------|-----------------|
D|-----------------|---------2-------|-----------------|-----------------|
A|-0-------2-------|-4---------------|-5---------------|-----------------|
E|-----------------|-----------------|---------1-------|-0-------4-------|
   H       H         H       H         H       H         H       H

G|---------3-------|-4---3-----------|-----------------|-----------------|
D|-----------------|-----------------|-2---------------|(2)--------------|
A|-----------------|-----------------|-----------------|-----------------|
E|-2---------------|-----------------|-----------------|-----------------|
   H       H         Q   H.            W                 W

G|-----------------|-----------------|
D|-----------------|---------3-------|
A|-0-------2-------|-4---------------|
E|-----------------|-----------------|
   H       H         H       H

G|---------3-------|-4---3-----------|-----------------|-----------------|
D|-4---------------|-----------------|-2---------------|/6-4-2-2---------|
A|-----------------|-----------------|-----------------|-----------------|
E|-----------------|-----------------|-----------------|-----------------|
   H       H         Q   H.            W                 E E E E H      

G|-----------------|-----------------|-----------------|-----------------|
D|-----------------|-----------------|-----------------|-----------------|
A|-0-------2-------|-4---------------|-5---------------|-----------------|
E|-----------------|-----------------|---------1-------|(1)------4-------|
   H       H         W                 H       H         H       H

G|---------3-------|-4---3-----------|-----------------|-----------------|
D|-----------------|-------------2---|-2---------------|(2)--------------|
A|-----------------|---------------2-|-----------------|-------4-2-------|
E|-2---------------|-----------------|-----------------|-------------0---|
   H       H         Q   H       E E   W                 Q.    E Q   Q  

G|-----------------|-----------------|
D|-----------------|-------------3---|
A|-0-------2-------|-4---------------|
E|-----------------|-----------------|
   H       H         H.          Q

G|---------3-------|-4---3-----------|-----------------|-----------------|
D|-4---------------|-----------------|-2---------------|(2)--------------|
A|-----------------|-----------------|-----------------|-----------------|
E|-----------------|-----------------|-----------------|-----------------|
   H       H         Q   H.            W                 W

G|-----------------|-----------------|-----------------|-----------------|
D|-----------------|---------2-------|-----------------|-----------------|
A|-0-------2-------|-4---------------|-5---------------|-----------------|
E|-----------------|-----------------|-----------------|-1-------4-------|
   H       H         H       H         W                 H       H

G|---------3-------|-4---3-----------|-----------------|-----------------|
D|-4---------------|-----------------|-2---------------|(2)--------------|
A|-----------------|-----------------|-----------------|-----------------|
E|-----------------|-----------------|-----------------|---------4-------|
   H       H         Q   H.            W                 H       H

G|-----------------|-----------------|
D|-----------------|-2---------------|
A|-----------------|-------------0---|
E|-----------------|-----------------|
   H       H         H.          Q

Outro

G|-----------------|-----------------|-----------------|-----------------|
D|-----------------|-----------------|-----------------|-----------------|
A|-----------------|---------------2-|-4---------------|-3-----------3---|
E|-5---------------|-4-----------4---|-----------------|-----------3-----|
   W                 H.          E E   W                 H       E E Q

G|-------------4---|-2---------------|-----------------|-----------------|
D|-----1---4-------|-----------2-----|-----------------|-----------------|
A|-2---------------|-------------0---|---------6---5---|-4-----------4---|
E|-----------------|-----------------|-4---------4-----|-----------4-----|
   Q   Q   Q   Q     H       E E Q     H       E E Q     H       E E Q

G|-----------------|-----------------|-----------------|-----------------|
D|-----------------|-----------------|---------------2-|-----------------|
A|-------------3---|-2---------------|-0---------0-4---|-------------3---|
E|-----0---3-------|-----------------|-----------------|-4---------4-----|
   Q   Q   Q   Q     W                 H       E E E E   H       E E Q

G|-----------------|-----------------|-----8-------8---|-----------------|
D|-----------------|-----------------|---------9-------|-----------------|
A|-4-----------4---|-3---------------|-----------------|-----------------|
E|-----------4-----|-----------------|-7---------------|-5---------------|
   H       E E Q     W                 Q   Q   Q   Q     W

G|-----------------|-----------------|-----------------|-----------------|
D|-----------------|-----------------|-----------------|-----1---4-------|
A|-------------2---|-4---------------|-3-----------3---|-2-----------2---|
E|-4---------4-----|-----------------|-----------3-----|-----------------|
   H       E E Q     W                 H       E E Q     Q   Q   Q   Q

G|-2---------------|-----------------|-----------------||
D|-----------2-----|-----------------|-----------------||
A|-------------0---|---------6---5---|-3-----------3---||
E|-----------------|-4---------4-----|-----------3-----||
   H.      E E Q     H       E E Q     H       E E Q


Key to rhythm notations:

W - Whole Note/Semi-Brieve
H - Half Note/Minim
Q - Quarter Note/Crotchet       Q. - Dotted Quarter Note
E - Eight Note/Quaver           E. - Dotted Eight Note
S - Sixteenth Note/Semi-Quaver  S. - Dotted Sixteenth Note
Suggest correction
Creating personal tab
Creating personal tab
You can edit any tab online and save it as your Personal.

You can edit, replace or remove any tab part or add personal notes – all changes will be seen only by you.

Personal tabs can be accessed anytime from any device, even offline.
Learn more »
Give kudos to tab author, rate the tab!
1 2 3 4 5
comments
print report bad tab
guest
You may want to rate the tab now too:
select rating
Wanna post a correction for this tab? Suggest correction