Oops, an error
Loading. Please wait.

Untitled How Does It Feel tab

version 1
version 1

Whole song

Interactive

25,739 views 30 this week
2 commentsread comments
1 2 3 4 5
x 9
add to favorites
×
Save as Personal and add changes to this tab that will be seen only by you. Learn more ›
×
You can save this tab as Personal to edit and correct it or add notes. All changes will be seen only by you. Learn more »
launch autoscroll
font size
0
reset
how to read this tab
guitar tuner
edit
Autoscroll
slow
fast
+/-
esc
set tempo
stop
Author
Difficulty
Hello All
This is my very first tab, as I never thought I could be able to do a tab.
I listened to this song and wanted to play it, but could not find these tabs (let alone 
D'Angelo tabs for that matter) anywhere on the internet.
I'm 98% percent positive these tabs are correct.
I did not add the little licks/small dips/quick notes, those are added for the added 
to the song.

[Intro 0:00-0:27]
|--------------------------------------5-5/7---------------------------|
|--7h8--10-3/5~-------7-5-7---------7-8--------10~-------8-7-5-8~------|
|--------------------------3~------------------------------------------|
|----------------------------------------------------------------------|
|----------------------------------------------------------------------|
|----------------------------------------------------------------------|


Note: At 2:19 the guitarist does a slow vibrato
|----------------------------------------------------------------------|
|----------------------------------------------------------------------|
|----------------------------------------------------------------------|
|--4~~~~---------------------------------------------------------------|
|----------------------------------------------------------------------|
|----------------------------------------------------------------------|

This basically repeats throughout the whole song (chorus)
It is very simple to play.
Listen To Song For Timing

Need any help, questions or comment just contact me


Tabbed By: -=JtG=-
Email: matrx10503@yahoo.com

            
            
Suggest correction
Creating personal tab
Creating personal tab
You can edit any tab online and save it as your Personal.

You can edit, replace or remove any tab part or add personal notes – all changes will be seen only by you.

Personal tabs can be accessed anytime from any device, even offline.
Learn more »
comments
print report bad tab
2 comments total.
-1 reply
alexlablaiks 10 Apr 19, 2015 04:33 PM

Tab incomplete. This only has the intro part. Not helpful at all. And what else do I have to say to complete this review?

-1 reply
matrx10503 56 Apr 19, 2015 05:18 PM

(I'm Sure) U-G values your opinion.
In Response: Some would argue your comment was not helpful at all either.
The intro is the bulk/main guitar part of the entire song. (What else are you needing to be tabbed in this song...full chords?)
If we time traveled back to circa 2009, we would see no one even attempted to tab this and with way less guitar knowledge back then than I have now, it was an accomplishment that I even could produce this much tabulator (transcribe).

17,000 some odd views later, and a 4 out of 5 avg. rating, its apparent I've helped at least one person that felt as I did and wanted to learn how to play this little lick.

guest
You may want to rate the tab now too:
select rating
Wanna post a correction for this tab? Suggest correction