Oops, an error
Loading. Please wait.

All Over Me tab

version 2
version 2

Whole song

Interactive

4,464 views 1 this week
3 commentsread comments
1 2 3 4 5
x 3
add to favorites
×
Save as Personal and add changes to this tab that will be seen only by you. Learn more ›
×
You can save this tab as Personal to edit and correct it or add notes. All changes will be seen only by you. Learn more »
launch autoscroll
font size
0
reset
how to read this tab
guitar tuner
edit
Autoscroll
slow
fast
+/-
esc
set tempo
stop
Author
Difficulty
*doesn't matter if you pluck or strum, it sounds good both ways... xD

Bm                        G          D
The space between what’s wrong and right,
Bm                        G   D
You will find me waiting for you.
Bm                      G            D
All your fortresses go down in the night,
Bm                          A
To the dawn I’ll see you through.

CHORUS
Bm       A              D
Cause I know, that you know,
            G      Bm
You’re all over me now.
           A               D
And it’s clear, you will show,
            G          Bm
And your curtains will go.
              A        D
But if your heart is cold,
     A          D
My sheets are warm,
         A
I will shelter you,
G             D
Through the storm.
Bm         A
I will shelter you,
G
   All through the storm.

(SOLO)
e|---------5------------5-------------5---------------------|
B|-7-7-7-7---7--5-5-5-5---5---3-3-3-3---3-3-8---8-7-5-3-----|
G|--------------------------------------------7-------------|
D|----------------------------------------------------------|
A|----------------------------------------------------------|
E|----------------------------------------------------------|

e|---------5------------------------------|
B|-7-7-7-7---7-5-5-5-5---5-3--------------|
G|-----------------------------2~4~2------|
D|----------------------------------------|
A|----------------------------------------|
E|----------------------------------------|

Bm                        G       D
If the answers aren’t so easy to find,
Bm     G                   A
The questions will have to do.
Bm                       G            D
’Cause I’ve lost myself deep in your eyes,
Bm              D
My only fix is you.

(CHORUS)

(SOLO)
e|---------5------------5-------------5---------------------|
B|-7-7-7-7---7--5-5-5-5---5---3-3-3-3---3-3-8---8-7-5-3-----|
G|--------------------------------------------7-------------|
D|----------------------------------------------------------|
A|----------------------------------------------------------|
E|----------------------------------------------------------|

e|---------5------------5-------------5---------------------|
B|-7-7-7-7---7--5-5-5-5---5---3-3-3-3---3-3-------3-5-3-3---|
G|-------------------------------------------2-4------------|
D|----------------------------------------------------------|
A|----------------------------------------------------------|
E|----------------------------------------------------------|

e|---------5------------5-------------5---------------------|
B|-7-7-7-7---7--5-5-5-5---5---3-3-3-3---3-3-5-3---3---------|
G|----------------------------------------------4-----------|
D|----------------------------------------------------------|
A|----------------------------------------------------------|
E|----------------------------------------------------------|

e|---------5------------5-------------5-------5-------------|
B|-7-7-7-7---7--5-5-5-5---5---3-3-3-3---3-3-5---5-----------|
G|----------------------------------------------------------|
D|----------------------------------------------------------|
A|----------------------------------------------------------|
E|----------------------------------------------------------|

e|---------5------------------------------|
B|-7-7-7-7---7-5-5-5-5---5-3--------------|
G|----------------------------2~4~2-------|
D|----------------------------------------|
A|----------------------------------------|
E|----------------------------------------|

G                      A                             D
Say what I am what we are it's a start towards the truth,
G                             A                  D         G
Taking my breath with each delicate step in my heart it's you,

Bm                         G         D
The space between what’s wrong and right,
Bm                        G   A
You will find me waiting for you.

*i love this song :)
*pls rate... thanks                               mei er.

            
            
Suggest correction
Creating personal tab
Creating personal tab
You can edit any tab online and save it as your Personal.

You can edit, replace or remove any tab part or add personal notes – all changes will be seen only by you.

Personal tabs can be accessed anytime from any device, even offline.
Learn more »
Give kudos to tab author, rate the tab!
1 2 3 4 5
comments
print report bad tab
3 comments total.
0 reply
biscuity 10 Dec 24, 2007 06:19 AM

looks great, is there an easy stumming pattern for it?

0 reply
mei er 74 Dec 30, 2007 01:50 AM

The strumming us not very hard i just play according to how i feel ot sounds best... but i don't know how to explain the
strumming pattern here sorry...

0 reply
danger.me 10 Jan 22, 2008 03:37 AM

xD
can u pls pls teach me the strumming of this song
coz i totaly luv it

guest
You may want to rate the tab now too:
select rating
Wanna post a correction for this tab? Suggest correction