Oops, an error
Loading. Please wait.

A Dark March tab

version 1
version 1

Whole song

4,214 views 6 this week
1 commentread comment
1 2 3 4 5
x 3
add to favorites
×
Save as Personal and add changes to this tab that will be seen only by you. Learn more ›
×
You can save this tab as Personal to edit and correct it or add notes. All changes will be seen only by you. Learn more »
launch autoscroll
font size
0
reset
how to read this tab
guitar tuner
edit
Autoscroll
slow
fast
+/-
esc
set tempo
stop
Author
Difficulty
A Dark March
Danger Mouse

Tabbed by deadlyMETAL
Contact: m3tallicamasta@gmail.com Subject line: GTALCS A Dark March Tab

Noted for:
Grand Theft Auto: Liberty City Stories main theme song

I didn't find tabs or mp3s of this ANYWHERE, so I just picked up my guitar and bang-I
it. Tuning is standard, and if you want to play the piano-ish part of it as well, it's a
of two parts. Very easy, and very evil sounding.

BTW my first tab. ;) It's extrememly accurate, though i think I didn't make the
part perfect.


e|--------------------------------|--------------------------------|  -|
B|--------------------------------|--------------------------------|   |
G|----0--0-0-2-3---2---0----------|----0--0-0-2-3--(3)--5-3--3--2--|   |
D|-0-----------------3---1--------|-0------------------------------|   |
A|--------------------------------|--------------------------------|   |
E|--------------------------------|--------------------------------|   |
                                                                       | x2
e|--------------------------------|--------------------------------|   |
B|--------------------------------|--------------------------------|   |
G|----0--0-0-2-3---2---0----------|----0--0-0-2-3--(3)--5-3--3--2--|   |
D|-0-----------------3---1--------|-0------------------------------|   |
A|--------------------------------|--------------------------------|   |
E|--------------------------------|--------------------------------|  -|

e|---------------------------------------|----------------------------------|
B|---------------------------------------|----------------------------------|
G|-14-14-14-/19-18-16-14-14--14--14-12-10|-9-9-9-9h10h12--12-10-------19\>14|
D|---------------------------------------|----------------------------------|
A|---------------------------------------|----------------------------------|
E|---------------------------------------|----------------------------------|

e|---------------------------------------|----------------------------------|
B|---------------------------------------|----------------------------------|
G|-14-14-14-/19-18-16-14-14--14--14-12-10|-9-9-9-9h10h12--12-10--12-10-12-10|
D|---------------------------------------|----------------------------------|
A|---------------------------------------|----------------------------------|
E|---------------------------------------|----------------------------------|

e|--------------------------------|--------------------------------|
B|--------------------------------|--------------------------------|
G|----0--0-0-2-3--(3)--5-3--3--2--|----0--0-0-2-3--(3)--5-3--3--2--|
D|-0------------------------------|-0------------------------------|
A|--------------------------------|--------------------------------|
E|--------------------------------|--------------------------------|

e|---------------------------------------|----------------------------------|
B|---------------------------------------|----------------------------------|
G|-14-14-14-/19-18-16-14-14--14--14-12-10|-9-9-9-9h10h12--12-10--12-10-12-10|
D|---------------------------------------|----------------------------------|
A|---------------------------------------|----------------------------------|
E|---------------------------------------|----------------------------------|

e|---------------------------------------|
B|---------------------------------------|
G|-14-14-14-/19-18-16-14-14--14--14-12-10|
D|---------------------------------------|
A|---------------------------------------|
E|---------------------------------------|

e|---------------------------------------|----------------------------------|
B|---------------------------------------|----------------------------------|
G|-14-14-14-/19-18-16-14-14--14--14-12-10|-9-9-9-9h10h12--12-10--12-10-12-10|
D|---------------------------------------|----------------------------------|
A|---------------------------------------|----------------------------------|
E|---------------------------------------|----------------------------------|

And the rest is the military style drum track.


Tab notes:
() = Grace note
h  = Hammer
/  = Slide up
\  = Slide down
\> = Slide down to following note(to be played in next measure) Sorry, it's my way of
it. You slide down to it and pick it in the NEXT measure.


Extra Notes:

1. It sounds like a piano accompanied by the orchestra and a clean electric guitar to
That's why I call it the piano part.

2. If the piano part is sounding funny, it's probably because I had listened to it so
my ears were shot and I just picked a few notes. Just joking, it's the closest to it I can
and it sounds very accurate. So if you find a better way of playing it(also I think the 
might sound funny to you), send me an email please! I'm keeping this accurate for everyone!

3. Yes it's easy. Why no one else tabbed it is beyond me.
Suggest correction
Creating personal tab
Creating personal tab
You can edit any tab online and save it as your Personal.

You can edit, replace or remove any tab part or add personal notes – all changes will be seen only by you.

Personal tabs can be accessed anytime from any device, even offline.
Learn more »
Give kudos to tab author, rate the tab!
1 2 3 4 5
comments
print report bad tab
1 comment total.
0 reply
derekwishkah 10 Dec 19, 2016 09:09 AM

Sounds great, there might bea few notes off when it comes to the chorus though.

guest
You may want to rate the tab now too:
select rating
Wanna post a correction for this tab? Suggest correction