Oops, an error
Loading. Please wait.

Best Of Friends Tab

version 1
version 1

Whole song

Interactive

863 views 1 this week
1 commentread comment
1 2 3 4 5
please rate
add to favorites
launch autoscroll
font size
0
reset
how to read this tab
guitar tuner
Autoscroll
slow
fast
+/-
esc
set tempo
stop
Help us to improve Ultimate-Guitar.com Take our survey!
×
Difficulty
intermediate
Dangerous Toys-Best Of Friends
From Hellacious Acres (1991)

Intro

e--3--2--2------0--2--2------3--1--1------0--1-------------------------------|
B--3--3----3----3--3---------1--1----1----1--1----------1--------------------|
G--2--2------2--2--2---------0--0------0--0--0--------2------0---0--0-0--0-0-|
D--0--0---------0--0---------2--2---------2--2--0-2-3------2----0---0-0--0-0-|
A-----------------------0-2--3--3---------3--3------------3----2----1-1--3-3-|
E----------------------------------------------------------------------------|

Vocals
e--2--0-0------------2--3-2--0-0-2--------------------0---------------0-----|
B--3--3---3----3--3--3--3-3--------3-------------1------1---------------1---|
G--2--0-----0--0--0--2--2-2-----------7--------2----------2------0--------0-|
D--0--2--------0--2--0--0-0-----------7--0-2-3-----3-----------2------------|
A-----3--------1--3-------------------5----------------------3-----3--------|
E---------------------------------------------------------------------------|

Vocals (Continued)
e--2--3-2---0-2-----------------------------|
B--3------3-----3----------1----------------|
G--2---------------------2-------0------0--0|
D--0---------------0-2-3-------2------0----0|
A----------------------------3------2------1|
E-------------------------------------------|

Chorus
e----------------------------------------------2--1--2--2-2-7-5-3-3-----------|
B----------------------------------------------3--1--3--3-3-8-7-5-5-----------|
G--5--7--2-------5--7----------0-----0--2-2-2--0--2--2---------------9--7-5-4-|
D--5--7--2-------5--7--------2-----0----2-2-2--0--3--0---------------9--7-5-4-|
A--3--5--0--0-2--3--5--0-2-3-----2------0-0-0--2---------------------7--5-3-2-|
E----------------------------------------------3------------------------------|

Bridge
e--10-----10--10-----10--10-----10---8--8--8--5--8-8--5-5-5-----7-----6----7-|
B--10-----10--10h13--10--10-----10---8--8--7--5--8-8--5-7-5------------------|
G--11h12--11--11-----11--11h12--11---7----------------------5h7-----7----9---|
D------------------------------------6---------------------------------------|
A----------------------------------------------------------------------------|
E----------------------------------------------------------------------------|

Bridge (Continued)
e--10-----10-------------------------------------|
B--10h12--10-10--8--5-5--7-----------------7h8--7|
G------------11--9--7-7--7--7--7--------7--7----7|
D---------------------------7--9--5--7--7--------|
A---------------------------------7--9-----------|
E------------------------------------------------|
Suggest correction What's this?
You can suggest a correction to this tab. Community and Mods will review your correction and vote to approve or reject it.
comments
We did not receive enough feedback on this tab! Please rate:
print report bad tab
1 2 3 4 5
1 comment total.
0 reply
ibanez87 1,317 wrote on January 16 2007, 03:31 pm

good job.

I want to post or [tab]
guest
You may want to rate the tab now too:
select rating
Please do not post tabs as comments. Select "correction" instead!