Oops, an error
Loading. Please wait.

New Anger Tab

159 views 1 this week
no commentswrite comment
1 2 3 4 5
please rate
add to favorites
launch autoscroll
font size
0
reset
how to read this tab
guitar tuner
Tab Pro tools
  • play this tab
  • loop segment
  • change instrument
  • show fretboard
  • metronome
Autoscroll
slow
fast
+/-
esc
set tempo
stop
Difficulty
Tuning
novice
D A D G B E
New Anger by Dangerous Toys
As Recorded on The R-tist 4-Merly Known As Dangerous Toys Album (1995)
Drop D

Intro
e ---
B ---
G 7--
D 7--
A 5--
D ---

e ------------------------------|
B ------------------------------|
G ------------------------------|
D ------------------------------|
A -3-0-0-000-2--0-0-0-0-2-3-2-3-|
D -3-0-0-000-2--0-0-0-0-2-3-2-3-|

Before Vocals-During Vocals
e ----------------------------|
B ----------------------------|
G ----------------------------|
D ----------------------------|
A -0-0-00-2-3---00-00-2-3-2-3-|
D -0-0-00-2-3---00-00-2-3-2-3-|

Chorus
e ---------------------|
B ---------------------|
G ---------------------|
D ---------------------|
A -0-2-3-4-4-4   Play--| 2x
D -0-2-3-4-4-4---------|

e ---------------------------------|
B ---------------------------------|
G ---------------------------------|
D ---------------------------------|
A -0-2-3-7-7-7--5-5-5--0-0-0-6-6-6-|
D -0-2-3-7-7-7--5-5-5--0-0-0-6-6-6-|

e ---------------------|
B ---------------------|
G ---------------------|
D ---------------------|
A -0-2-3-4-4-4   Play--| 2x
D -0-2-3-4-4-4---------|

e -----------------------------|
B -----------------------------|
G -----------------------------|
D -----------------------------|
A -0-2-3-7-7-7--5-5-5--0-0-0-6-|
D -0-2-3-7-7-7--5-5-5--0-0-0-6-|

Bridge
e ------------------------------------------------------------|
B ------------------------------------------------------------|
G ------------------------------------------------------------|
D ------------------------------------------------------------|
A -6-5-0-3-5--0-3-3-3-3-3-5--0-2-2-2-2-2-3-0--2-2-2-2-0-3-2-0-|
D -6-5-0-3-5--0-3-3-3-3-3-5--0-2-2-2-2-2-3-0--2-2-2-2-0-3-2-0-|

e --------------------------------------------------------|
B --------------------------------------------------------|
G --------------------------------------------------------|
D --------------------------------------------------------|
A -6-5-0-3-5--0-3-3-3-3-3-5--0-2-2-2-2-2-3-0--3-3-3-3-3-5-|
D -6-5-0-3-5--0-3-3-3-3-3-5--0-2-2-2-2-2-3-0--3-3-3-3-3-5-|

e ------------     --------------------------|
B ------------     --------------------------|
G ------------     --------------------------|
D -5--2-------     --------------------------|
A -5--0--5-3-0     --3-5-3-0---------- Play--| 8x
D -------5-3-0     -0--------5-3-0-3-0-------|

After Bridge
e --------------------------------------------------------------|
B --------------------------------------------------------------|
G --------------------------------------------------------------|
D ------------------------------------------------------- Play--| 2x
A -2222-2-2222-2-2222-2-2222-2-0-0-00-2-3-0-0-0-0-2-3-2-3-------|
D -2222-2-2222-2-2222-2-2222-2-0-0-00-2-3-0-0-0-0-2-3-2-3-------|
   pm..   pm..   pm..   pm..

e --------------------------------------------------------------|
B --------------------------------------------------------------|
G --------------------------------------------------------------|
D ------------------------------------------------------- Play--| 2x
A -2222222222222222222222222-2-0-0-00-2-3-0-0-0-0-2-3-2-3-------|
D -2222222222222222222222222-2-0-0-00-2-3-0-0-0-0-2-3-2-3-------|
   pm.......................
comments
We did not receive enough feedback on this tab! Please rate:
print report bad tab
1 2 3 4 5
I want to post or [tab]
guest
You may want to rate the tab now too:
select rating
Please do not post tabs as comments. Select "correction" instead!