Oops, an error
Loading. Please wait.

Sportn A Woody Tab

453 views 3 this week
no commentswrite comment
1 2 3 4 5
please rate
add to favorites
launch autoscroll
font size
0
reset
how to read this tab
guitar tuner
Autoscroll
slow
fast
+/-
esc
set tempo
stop
Help us to improve Ultimate-Guitar.com Take our survey!
×
Difficulty
novice
I tried to tab out as much as I could but I still haven't developed my ear that well yet 
and besides I don't see anyone else trying to tab out this song. I know some of it may 
be off but hey it's a start, let's get some help and get a good tab of this awesome song on here!

e--------------------|
B--------------------|
G-2------------------|
D-2--------5-4-0h2p0-|
A-0--0-3-5-----------|
E--------------------|
      PM--|

The last time play without the 0h2p0 then this is the main riff

e------------------------|
B------------------3---3-|
G-2--------------5-2-5-2-|
D-2----------5---5-0-5-0-|
A-0--0-3h5p3---5-3---3---|
E------------------------|

e-----------|
B-----------|
G-7-6-5-----|
D-7-6-5-5-7-|
A-5-4-3-5-7-|
E-------3-5-|

e--------------------|
B--------------------|
G--------------------|
D-10-10-12-10-10-12--|
A--8--8--8--8--8--8--|
E--------------------|
  PM-----------------|

This is the ending to the above riff
e---------|
B---------|
G-7-5---5-|
D-7-5-5-5-|
A-5-3-5-3-|
E-----3---|
Suggest correction
Give kudos to tab author, rate the tab!
1 2 3 4 5
comments
print report bad tab
guest
You may want to rate the tab now too:
select rating
Wanna post a correction for this tab? Suggest correction