Oops, an error
Loading. Please wait.

You Take The Mood And Ill Take The Weather Tab

29 views 1 this week
no commentswrite comment
1 2 3 4 5
please rate
add to favorites
launch autoscroll
font size
0
reset
how to read this tab
guitar tuner
Autoscroll
slow
fast
+/-
esc
set tempo
stop
Help us to improve Ultimate-Guitar.com Take our survey!
×
Author
Difficulty
novice
This is a tab for unsigned band Daniel and the Scandals you can find them on 
facebook.com/danielandthescandals , twitter.com/DATS_Official or danielandthescandals.com

Daniel and the Scandals
You Take the Mood (and I'll Take the Weather)

Tab Guide: (/) Slide Up  (\) Slide Down  (h) Hammer On  (p) Pull Off  (b) Bend
           (r) Release (v) Vibrato

Intro

Dan: (You'll have to work out the rhythm)
E|--0--|--0--0--|--
B|--0--|--0--0--|--
G|--1--|--8--6--|-- x2
D|--2--|--9--7--|--
A|--2--|--9--7--|--
E|--0--|--7--5--|--

Carl:
E|-------------------------------------|--------------------------------|--
B|----------------------10--10--10--9--|--10/12--12--12--12--12\10--9v--|--
G|--------------9h11p9--11--11--11--9--|--11/13--13--13--13--13\11--9v--|-- x2
D|--------9h11-------------------------|--------------------------------|--
A|--9h11-------------------------------|--------------------------------|--
E|-------------------------------------|--------------------------------|--

Verse

Dan:
E|--0--|--0--0--|--
B|--0--|--0--0--|--
G|--1--|--8--6--|-- x4
D|--2--|--9--7--|--
A|--2--|--9--7--|--
E|--0--|--7--5--|--


Carl: (comes in on 3rd time)
E|--------------------------------------------|--
B|--------------------------------------------|--
G|--------------------------------------------|-- x2
D|--------------------------------------------|--
A|--7--------7--------7-----------7-----------|--
E|-----9--7-----9--7-----9--7--9-----9--7--9--|--

Pre Chorus

Dan:
E|--0--|--0--
B|--0--|--0--
G|--2--|--6-- x3 then hold last chord
D|--4--|--7--
A|--4--|--7--
E|--2--|--5--

Carl:
E|--------------|------------|--
B|--------------|-------12v--|--
G|--14--13--11--|------------|-- x3
D|--------------|--14v-------|--
A|--------------|------------|--
E|--------------|------------|--

Chorus

Dan:
E|--0--|--0--|--0--|--0--
B|--0--|--0--|--0--|--0--
G|--1--|--4--|--2--|--6-- x4
D|--2--|--4--|--4--|--7--
A|--2--|--2--|--4--|--7--
E|--0--|-----|--2--|--5--


Carl:
E|-----|-----|------|------|---------------------|------------|---------------------|-----|--
B|--9--|--7--|--10--|--10--|--10/12--12--12--12--|--12\10--9--|--10/12--12--12--10--|--9--|--
G|--9--|--8--|--11--|--9---|--11/13--13--13--13--|--13\11--9--|--11/13--13--13--11--|--9--|-- x2
D|--9--|--9--|--11--|--11--|---------------------|------------|---------------------|-----|--
A|-----|-----|------|------|---------------------|------------|---------------------|-----|--
E|-----|-----|------|------|---------------------|------------|---------------------|-----|--

Then for the rap they both play:
E|--0--|--0--|--0--|--0--
B|--0--|--0--|--0--|--0--
G|--1--|--2--|--6--|--8-- x4
D|--2--|--4--|--7--|--9--
A|--2--|--4--|--7--|--9--
E|--0--|--2--|--5--|--7--


Also live on the riff before the rap Carl sometimes plays 

E|-------0-------0-----2h3p2p0-------0-----|--0-0-0-0-0-0-0-0-0--0--0--0--0--0--0--0--|--0---
B|------------------------------3/5-----5--|--7-7-7-7-9-9-9-9-10-10-10-10-11-11-11-11-|--12--
G|--0h1-----0h1-----1----------------------|------------------------------------------|------
D|-----------------------------------------|------------------------------------------|------
A|-----------------------------------------|------------------------------------------|------
E|-----------------------------------------|------------------------------------------|------
Suggest correction
Give kudos to tab author, rate the tab!
1 2 3 4 5
comments
print report bad tab
guest
You may want to rate the tab now too:
select rating
Wanna post a correction for this tab? Suggest correction