Oops, an error
Loading. Please wait.

Laziza bass

25 views 1 this week
no commentswrite comment
1 2 3 4 5
3 more votes to show rating
add to favorites
×
Save as Personal and add changes to this tab that will be seen only by you. Learn more ›
×
You can save this tab as Personal to edit and correct it or add notes. All changes will be seen only by you. Learn more »
launch autoscroll
font size
0
reset
guitar tuner
edit
Autoscroll
slow
fast
+/-
esc
set tempo
stop
[Verse]
(00:15)
G|---------------------------------|---------------------------------|
D|---------------------------------|---------------------------------|
A|---------------------------------|---------------------------------|
E|6---6---6---6---6---6---6---6----|6---6---6---6---6---6---6---6----|

G|---------------------------------|---------------------------------|
D|---------------------------------|---------------------------------|
A|---------------------------------|---------------------------------|
E|6---6---6---6---6---6---6---6----|6---6---6---6---6---6---6---6----|

G|---------------------------------|---------------------------------|
D|---------------------------------|---------------------------------|
A|---------------------------------|6---6---6---6---6---6---6---6----|
E|6---6---6---6---6---6---6---6----|---------------------------------|

G|---------------------------------|---------------------------------|
D|---------------------------------|---------------------------------|
A|---------------------------------|---------------------------------|
E|4---4---4---4---4---4---4---4----|6---6---6---6---6---6---6---6----|

G|---------------------------------|---------------------------------|
D|---------------------------------|---------------------------------|
A|---------------------------------|---------------------------------|
E|6---6---6---6---6---6---6---6----|6---6---6---6---6---6---6---6----|

G|---------------------------------|---------------------------------|
D|---------------------------------|---------------------------------|
A|---------------------------------|---------------------------------|
E|6---6---6---6---6---6---6---6----|6---6---6---6---6---6---6---6----|

G|---------------------------------|---------------------------------|
D|---------------------------------|---------------------------------|
A|---------------------------------|6---6---6---6---6---6---6---6----|
E|6---6---6---6---6---6---6---6----|---------------------------------|

G|---------------------------------|---------------------------------|
D|---------------------------------|---------------------------------|
A|---------------------------------|---------------------------------|
E|4---4---4---4---4---4---4---4----|6---6---6---6---6---6---6---6----|

G|---------------------------------|---------------------------------|
D|---------------------------------|---------------------------------|
A|---------------------------------|---------------------------------|
E|6---6---6---6---6---6---6---6----|4---4---4---4---4---4---4---4----|

[Chorus]
G|---------------------------------|---------------------------------|
D|---------------------------------|---------------------------------|
A|3---3---3---3---3---3---3---3----|---------------------------------|
E|---------------------------------|4---4---4---4---4---4---4---4-/--|

G|---------------------------------|---------------------------------|
D|---------------------------------|---------------------------------|
A|---------------------------------|---------------------------------|
E|6---6---6---6---6---6---6---6----|6---6---6---6---6---6---6---6----|

G|---------------------------------|---------------------------------|
D|---------------------------------|---------------------------------|
A|3---3---3---3---3---3---3---3-\--|---------------------------------|
E|---------------------------------|4---4---4---4---4---4---4---4-/--|

G|---------------------------------|---------------------------------|
D|---------------------------------|---------------------------------|
A|---------------------------------|---------------------------------|
E|6---6---6---6---6---6---6---6----|5---5---5---5---5---5---5---5----|

G|---------------------------------|---------------------------------|
D|---------------------------------|---------------------------------|
A|---------------------------------|---------------------------------|
E|4---4---4---4---4---4---4---4----|3---3---3---3---3---3---3---3----|

G|---------------------------------|---------------------------------|
D|---------------------------------|---------------------------------|
A|3---3---3---3---3---3---3---3----|---------------------------------|
E|---------------------------------|4---4---4---4---4---4---4---4-/--|

[Interlude]
G|---------------------------------|---------------------------------|
D|---------------------------------|---------------------------------|
A|---------------------------------|---------------------------------|
E|6--------------------------------|---------------------------------|

G|---------------------------------|---------------------------------|
D|---------------------------------|---------------------------------|
A|---------------------------------|---------------------------------|
E|---------------------------------|---------------------------------|

[Verse]
G|---------------------------------|---------------------------------|
D|---------------------------------|---------------------------------|
A|---------------------------------|---------------------------------|
E|6---6---6---6---6---6---6---6----|6---6---6---6---6---6---6---6----|

G|---------------------------------|---------------------------------|
D|---------------------------------|---------------------------------|
A|---------------------------------|---------------------------------|
E|6---6---6---6---6---6---6---6----|6---6---6---6---6---6---\---/----|

G|---------------------------------|---------------------------------|
D|---------------------------------|---------------------------------|
A|---------------------------------|6---6---6---6---6---6---6---6----|
E|6---6---6---6---6---6---6---6----|---------------------------------|

G|---------------------------------|---------------------------------|
D|---------------------------------|---------------------------------|
A|---------------------------------|---------------------------------|
E|4---4---4---4---4---4---4---4----|6---6---6---6---6---6---\---/----|

G|---------------------------------|---------------------------------|
D|---------------------------------|---------------------------------|
A|---------------------------------|6---6---6---6---6---6---6---6----|
E|6---6---6---6---6---6---6---6----|---------------------------------|

G|---------------------------------|---------------------------------|
D|---------------------------------|---------------------------------|
A|---------------------------------|---------------------------------|
E|4---4---4---4---4---4---4---4----|6---6---6---6---6---6---6---6----|

G|---------------------------------|---------------------------------|
D|---------------------------------|---------------------------------|
A|---------------------------------|6---6---6---6---6---6---6---6----|
E|6---6---6---6---6---6---6---6----|---------------------------------|

G|---------------------------------|---------------------------------|
D|---------------------------------|---------------------------------|
A|---------------------------------|---------------------------------|
E|4---4---4---4---4---4---4---4----|6---6---6---6---6---6---6---6----|

G|---------------------------------|---------------------------------|
D|---------------------------------|---------------------------------|
A|---------------------------------|---------------------------------|
E|6---6---6---6---6---6---6---6----|4---4---4---4---4---4---4---4----|

[Chorus]
G|---------------------------------|---------------------------------|
D|---------------------------------|---------------------------------|
A|3---3---3---3---3---3---3---3----|---------------------------------|
E|---------------------------------|4---4---4---4---4---4---4---4-/--|

G|---------------------------------|---------------------------------|
D|---------------------------------|---------------------------------|
A|---------------------------------|---------------------------------|
E|6---6---6---6---6---6---6---6----|6---6---6---6---6---6---6---6----|

G|---------------------------------|---------------------------------|
D|---------------------------------|---------------------------------|
A|3---3---3---3---3---3---3---3-\--|---------------------------------|
E|---------------------------------|4---4---4---4---4---4---4---4-/--|

G|---------------------------------|---------------------------------|
D|---------------------------------|---------------------------------|
A|---------------------------------|---------------------------------|
E|6---6---6---6---6---6---6---6----|5---5---5---5---5---5---5---5----|

G|---------------------------------|---------------------------------|
D|---------------------------------|---------------------------------|
A|---------------------------------|---------------------------------|
E|4---4---4---4---4---4---4---4----|3---3---3---3---3---3---3---3----|

G|---------------------------------|---------------------------------|
D|---------------------------------|---------------------------------|
A|3---3---3---3---3---3---3---3----|---------------------------------|
E|---------------------------------|4---4---4---4---4---4---4---4-/--|

[Interlude]
G|---------------------------------|---------------------------------|
D|---------------------------------|---------------------------------|
A|---------------------------------|---------------------------------|
E|6--------------------------------|---------------------------------|

G|---------------------------------|---------------------------------|
D|---------------------------------|---------------------------------|
A|---------------------------------|---------------------------------|
E|---------------------------------|---------------------------------|

G|---------------------------------|---------------------------------|
D|---------------------------------|---------------------------------|
A|---------------------------------|---------------------------------|
E|6--------------------------------|---------------------------------|

G|---------------------------------|---------------------------------|
D|---------------------------------|---------------------------------|
A|---------------------------------|---------------------------------|
E|---------------------------------|---------------------------------|

[Solo]
G|---------------------------------|---------------------------------|
D|---------------------------------|---------------------------------|
A|---------------------------------|---------------------------------|
E|6---6---6---6---6---6---6---6----|6---6---6---6---6---6---6---6----|

G|---------------------------------|---------------------------------|
D|---------------------------------|---------------------------------|
A|---------------------------------|---------------------------------|
E|6---6---6---6---6---6---6---6----|6---6---6---6---6---6---\---/----|

G|---------------------------------|---------------------------------|
D|---------------------------------|---------------------------------|
A|---------------------------------|---------------------------------|
E|6---6---6---6---6---6---6---6----|6---6---6---6---6---6---6---6----|

G|---------------------------------|---------------------------------|
D|---------------------------------|---------------------------------|
A|---------------------------------|---------------------------------|
E|6---6---6---6---6---6---6---6----|6---6---6---6---6---6---6---6----|

G|---------------------------------|
D|---------------------------------|
A|---------------------------------|
E|4---4---4---4---4---4---4---4----|

[Chorus]
G|---------------------------------|---------------------------------|
D|---------------------------------|---------------------------------|
A|3---3---3---3---3---3---3---3----|---------------------------------|
E|---------------------------------|4---4---4---4---4---4---4---4-/--|

G|---------------------------------|---------------------------------|
D|---------------------------------|---------------------------------|
A|---------------------------------|---------------------------------|
E|6---6---6---6---6---6---6---6----|6---6---6---6---6---6---6---6----|

G|---------------------------------|---------------------------------|
D|---------------------------------|---------------------------------|
A|3---3---3---3---3---3---3---3-\--|---------------------------------|
E|---------------------------------|4---4---4---4---4---4---4---4-/--|

G|---------------------------------|---------------------------------|
D|---------------------------------|---------------------------------|
A|---------------------------------|---------------------------------|
E|6---6---6---6---6---6---6---6----|5---5---5---5---5---5---5---5----|

G|---------------------------------|---------------------------------|
D|---------------------------------|---------------------------------|
A|---------------------------------|---------------------------------|
E|4---4---4---4---4---4---4---4----|3---3---3---3---3---3---3---3----|

G|---------------------------------|---------------------------------|
D|---------------------------------|---------------------------------|
A|3---3---3---3---3---3---3---3----|---------------------------------|
E|---------------------------------|4---4---4---4---4---4---4---4-/--|

G|---------------------------------|---------------------------------|
D|---------------------------------|---------------------------------|
A|---------------------------------|---------------------------------|
E|6---6---6---6---6---6---6---6----|6---6---6---6---6---6---6---6----|

G|---------------------------------|---------------------------------|
D|---------------------------------|---------------------------------|
A|3---3---3---3---3---3---3---3-\--|---------------------------------|
E|---------------------------------|4---4---4---4---4---4---4---4-/--|

G|---------------------------------|---------------------------------|
D|---------------------------------|---------------------------------|
A|---------------------------------|---------------------------------|
E|6---6---6---6---6---6---6---6----|5---5---5---5---5---5---5---5----|

G|---------------------------------|---------------------------------|
D|---------------------------------|---------------------------------|
A|---------------------------------|---------------------------------|
E|4---4---4---4---4---4---4---4----|3---3---3---3---3---3---3---3----|

G|---------------------------------|---------------------------------|
D|---------------------------------|---------------------------------|
A|3---3---3---3---3---3---3---3----|---------------------------------|
E|---------------------------------|4---4---4---4---4---4---4---4-/--|

[Interlude]
G|---------------------------------|---------------------------------|
D|---------------------------------|---------------------------------|
A|---------------------------------|---------------------------------|
E|6---6---6---6---6---6---6---6----|6---6---6---6---6---6---6---6----|

G|---------------------------------|---------------------------------|
D|---------------------------------|---------------------------------|
A|---------------------------------|---------------------------------|
E|6---6---6---6---6---6---6---6----|6---6---6---6---6---6---6---6----|

G|---------------------------------|
D|---------------------------------|
A|---------------------------------|
E|4---4---4---4---4---4---4---4----|

[Chorus]
G|---------------------------------|---------------------------------|
D|---------------------------------|---------------------------------|
A|3---3---3---3---3---3---3---3----|---------------------------------|
E|---------------------------------|4---4---4---4---4---4---4---4-/--|

G|---------------------------------|---------------------------------|
D|---------------------------------|---------------------------------|
A|---------------------------------|---------------------------------|
E|6---6---6---6---6---6---6---6----|6---6---6---6---6---6---6---6----|

G|---------------------------------|---------------------------------|
D|---------------------------------|---------------------------------|
A|3---3---3---3---3---3---3---3-\--|---------------------------------|
E|---------------------------------|4---4---4---4---4---4---4---4-/--|

G|---------------------------------|---------------------------------|
D|---------------------------------|---------------------------------|
A|---------------------------------|---------------------------------|
E|6---6---6---6---6---6---6---6----|5---5---5---5---5---5---5---5----|

G|---------------------------------|---------------------------------|
D|---------------------------------|---------------------------------|
A|---------------------------------|---------------------------------|
E|4---4---4---4---4---4---4---4----|3---3---3---3---3---3---3---3----|

G|---------------------------------|---------------------------------|
D|---------------------------------|---------------------------------|
A|3---3---3---3---3---3---3---3----|---------------------------------|
E|---------------------------------|4---4---4---4---4---4---4---4-/--|

[Outro] 
(Fade-out)
G|---------------------------------|---------------------------------|
D|---------------------------------|---------------------------------|
A|---------------------------------|---------------------------------|
E|6---6---6---6---6---6---6---6----|6---6---6---6---6---6---6---6----|


********************************************

/ = Silde up
\ = Slide down

******************************************

            
            
Suggest correction
Creating personal tab
Creating personal tab
You can edit any tab online and save it as your Personal.

You can edit, replace or remove any tab part or add personal notes – all changes will be seen only by you.

Personal tabs can be accessed anytime from any device, even offline.
Learn more »
Give kudos to tab author, rate the tab!
1 2 3 4 5
comments
print report bad tab
guest
You may want to rate the tab now too:
select rating
Wanna post a correction for this tab? Suggest correction