Oops, an error
Loading. Please wait.

Mon Fils Ma Bataille bass

version 1
version 1

Whole song

Interactive

10 views 1 this week
no commentswrite comment
1 2 3 4 5
3 more votes to show rating
add to favorites
×
Save as Personal and add changes to this tab that will be seen only by you. Learn more ›
×
You can save this tab as Personal to edit and correct it or add notes. All changes will be seen only by you. Learn more »
launch autoscroll
font size
0
reset
guitar tuner
edit
Autoscroll
slow
fast
+/-
esc
set tempo
stop
Artist: Daniel Balavoine 
Song: Mon Fils Ma Bataille
Tuning - Standard
Time - 4/4
tabbed by electricbunny

[Intro]                                                             
G|3-----------------------3---2---|--------------------------------|
D|--------------------------------|----------------3---------------|
A|--------------------------------|--------------------------------|
E|--------------------------------|--------------------------------|
 
G|0-------------------------------|--------------------------------|
D|--------------------------------|--------3-----------------------|
A|--------------------------------|------------------------1-------|
E|--------------------------------|1---1-------1---1---3-------3---|
 
G|3-----------------------3---2---|--------------------------------|
D|--------------------------------|----------------3---------------|
A|--------------------------------|--------------------------------|
E|--------------------------------|--------------------------------|
 
G|0-------------------------------|--------------------------------|
D|--------------------------------|--------3-----------------------|
A|--------------------------------|------------------------1-------|
E|--------------------------------|1---1-------1---1---3-------3---|
 
[Verse]                                                             
G|--------------------------------|--------------------------------|
D|--------------------------------|0-----------0---0---------------|
A|1-----------1---1---------------|--------------------------------|
E|--------------------------------|--------------------------------|
 
G|--------------------------------|--------8-----------------------|
D|1-----------1---1---------------|--------------------------------|
A|--------------------------------|8---8-------8---8---------------|
E|--------------------------------|--------------------------------|
 
G|--------------------------------|--------------------------------|
D|--------------------------------|0-----------0---0---------------|
A|1-----------1---1---------------|--------------------------------|
E|--------------------------------|--------------------------------|
 
G|--------------------------------|--------8-----------------------|
D|1-----------1---1---------------|--------------------------------|
A|--------------------------------|6---6-------6---6---------------|
E|--------------------------------|--------------------------------|
 
[Chorus]                                                            
G|--------------------------------|--------------------------------|
D|--------------------------------|3-----------3---3---------------|
A|--------------------------------|--------------------------------|
E|3-----------3---3-------3-------|--------------------------------|
 
G|--------------------------------|----------------3-------2-------|
D|1-----------1---1-------0-------|------------3-------------------|
A|----------------------------3---|1-------------------------------|
E|--------------------------------|--------------------------------|
                                                                    
G|0-----------0-----------0---0---|--------------------------------|
D|--------------0---------------0-|------------------------3-------|
A|--------------------------------|--------------------3-----------|
E|----------------3---3-----------|1-----------1---1---------------|
                                                                    
G|----------------------------3-5-|8---5---------------------------|
D|1-----------1---1---------------|--------8-----------------------|
A|--------------------------------|----------------6---6---6-------|
E|--------------------------------|--------------------------------|
                                                                   
G|3---3---2---3---3---2---3-------|--------------------------------|
D|--------------------------------|1---1---1---1---1---0---1---3---|
A|--------------------------------|--------------------------------|X2
E|--------------------------------|--------------------------------|
 
[Verse]                                                             
G|--------------------------------|--------------------------------|
D|--------------------------------|0-----------0---0---------------|
A|1-----------1---1---------------|--------------------------------|
E|--------------------------------|--------------------------------|
 
G|--------------------------------|--------8-----------------------|
D|1-----------1---1---------------|--------------------------------|
A|--------------------------------|8---8-------8---8---------------|
E|--------------------------------|--------------------------------|
 
G|--------------------------------|--------------------------------|
D|--------------------------------|0-----------0---0---------------|
A|1-----------1---1---------------|--------------------------------|
E|--------------------------------|--------------------------------|
 
G|--------------------------------|--------8-----------------------|
D|1-----------1---1---------------|--------------------------------|
A|--------------------------------|6---6-------6---6---------------|
E|--------------------------------|--------------------------------|
 
[Chorus]                                                            
G|--------------------------------|--------------------------------|
D|--------------------------------|3-----------3---3---------------|
A|--------------------------------|--------------------------------|
E|3-----------3---3-------3-------|--------------------------------|
 
G|--------------------------------|----------------3-------2-------|
D|1-----------1---1-------0-------|------------3-------------------|
A|----------------------------3---|1-------------------------------|
E|--------------------------------|--------------------------------|
 
G|0-----------0-------------------|--------------------------------|
D|--------------0---------0-------|--------------------------------|
A|--------------------------------|----------------3---------------|
E|----------------3---3-----------|1-----------1-------------1-----|
 
G|----------------------------3-5-|8---8---5-----------------------|
D|1-----------1---1---------------|------------8-------------------|
A|--------------------------------|----------------6-------6-------|
E|--------------------------------|--------------------------------|
 
G|3---3---2---3---3---2---3-------|--------------------------------|
D|--------------------------------|1---1---1---1---1---0---1---3---|
A|--------------------------------|--------------------------------|2
E|--------------------------------|--------------------------------|
 
G|3---3---2---3---3---2-----------|--------------------------------|
D|------------------------3---2-1-|0-----------0---0---------------|
A|------------------------------5-|--------------------------------|
E|--------------------------------|--------------------------------|
 
G|--------------------------------|1---1-------1---1-------1-------|
D|1---------------1-----------4---|--------4-----------4-----------|
A|--------------------------------|--------------------------------|
E|--------------------------------|--------------------------------|
 
G|----------1-1-------------------|6-------------------6---5---6---|
D|--------4-----------------------|--------------------------------|
A|----------------------1---------|--------------------------------|
E|4---4-----------4---4---4-------|--------------------------------|
 
G|5---5---3-----------------------|--------------------------------|
D|------------3-------3-----------|0-----------0---0---------------|
A|------------------------6---5---|--------------------------------|
E|--------------------------------|--------------------------------|
 
G|--------------------------------|1---1-------1---1-------1-------|
D|1---------------1-----------4---|--------4-----------4-----------|
A|--------------------------------|--------------------------------|
E|--------------------------------|--------------------------------|
 
G|----------1-1-------------------|6-------------------6---5---6---|
D|--------4-----------------------|--------------------------------|
A|----------------------1---------|--------------------------------|
E|4---4-----------4---4---4-------|--------------------------------|
 
                                  [Verse]                           
G|5---5---3-----------------------|--------------------------------|
D|------------3-------3-----------|--------------------------------|
A|------------------------6---5---|1-----------1---1---------------|
E|--------------------------------|--------------------------------|
 
G|--------------------------------|--------------------------------|
D|0-----------0---0---------------|1-----------1---1---------------|
A|--------------------------------|--------------------------------|
E|--------------------------------|--------------------------------|
 
G|--------8-----------------------|--------------------------------|
D|--------------------------------|--------------------------------|
A|8---8-------8---8---------------|1-----------1---1---------------|
E|--------------------------------|--------------------------------|
 
G|--------------------------------|--------------------------------|
D|0-----------0---0---------------|1-----------1---1---------------|
A|--------------------------------|--------------------------------|
E|--------------------------------|--------------------------------|
 
                                  [Chorus]                          
G|--------8-----------------------|--------------------------------|
D|--------------------------------|--------------------------------|
A|6---6-------6---6---------------|--------------------------------|
E|--------------------------------|3-----------3---3-------3-------|
 
G|--------------------------------|--------------------------------|
D|3-----------3---3---------------|1-----------1---1-------0-------|
A|--------------------------------|----------------------------3---|
E|--------------------------------|--------------------------------|
 
G|----------------3-------2-------|0-----------0-------------------|
D|------------3-------------------|--------------0---------0-------|
A|1-------------------------------|--------------------------------|
E|--------------------------------|----------------3---3-----------|
 
G|--------------------------------|----------------------------3-5-|
D|--------------------------------|1-----------1---1---------------|
A|----------------3---------------|--------------------------------|
E|1-----------1-------------1-----|--------------------------------|
 
G|8---8---5-----------------------|3---3---2---3---3---2---3-------|
D|------------8-------------------|--------------------------------|
A|----------------6-------6-------|--------------------------------|
E|--------------------------------|--------------------------------|
 
G|--------------------------------|3---3---2---3---3---2---3-------|
D|1---1---1---1---1---0---1---3---|--------------------------------|
A|--------------------------------|--------------------------------|
E|--------------------------------|--------------------------------|
 
G|--------------------------------|3---3---2---3---3---2-----------|
D|1---1---1---1---1---0---1---3---|------------------------3---2-1-|
A|--------------------------------|--------------------------------|
E|--------------------------------|--------------------------------|
 
[Chorus]                                                            
G|--------------------------------|--------------------------------|
D|0-----------0---0---------------|1---------------1-----------4---|
A|--------------------------------|--------------------------------|
E|--------------------------------|--------------------------------|
 
G|1---1-------1---1-------1-------|----------1-1-------------------|
D|--------4-----------4-----------|--------4-----------------------|
A|--------------------------------|----------------------1---------|
E|--------------------------------|4---4-----------4---4---4-------|
 
G|6-------------------6---5---6---|5---5---3-----------------------|
D|--------------------------------|------------3-------3-----------|
A|--------------------------------|------------------------6---5---|
E|--------------------------------|--------------------------------|
 
G|--------------------------------|--------------------------------|
D|0-----------0---0---------------|1---------------1-----------4---|
A|--------------------------------|--------------------------------|
E|--------------------------------|--------------------------------|
 
G|1---1-------1---1-------1-------|----------1-1-------------------|
D|--------4-----------4-----------|--------4-----------------------|
A|--------------------------------|----------------------1---------|
E|--------------------------------|4---4-----------4---4---4-------|
 
G|6-------------------6---5---6---|5---5---3-----------------------|
D|--------------------------------|------------3-------3-----------|
A|--------------------------------|------------------------6---5---|
E|--------------------------------|--------------------------------|
 
G|--------------------------------|--------------------------------|
D|0-----------0---0---------------|1---------------1-----------4---|
A|--------------------------------|--------------------------------|
E|--------------------------------|--------------------------------|
 
G|1---1-------1---1-------1-------|----------1-1-------------------|
D|--------4-----------4-----------|--------4-----------------------|
A|--------------------------------|----------------------1---------|
E|--------------------------------|4---4-----------4---4---4-------|
 
G|6-------------------6---5---6---|5---5---3-----------------------|
D|--------------------------------|------------3-------3-----------|
A|--------------------------------|------------------------6---5---|
E|--------------------------------|--------------------------------|
 
G|--------------------------------|--------------------------------|
D|0-----------0---0---------------|1---------------1-----------4---|
A|--------------------------------|--------------------------------|
E|--------------------------------|--------------------------------|
 
G|1---1-------1---1-------1-------|----------1-1-------------------|
D|--------4-----------4-----------|--------4-----------------------|
A|--------------------------------|----------------------1---------|
E|--------------------------------|4---4-----------4---4---4-------|
 
[Outro]                                                             
G|6-------------------6---5---6---|5---5---3-----------------------|
D|--------------------------------|------------3-------3-----------|
A|--------------------------------|------------------------6---5---|
E|--------------------------------|--------------------------------|
 
G|--------------------------------|--------------------------------|
D|0-----------0---0---------------|1---------------1-----------4---|
A|--------------------------------|--------------------------------|
E|--------------------------------|--------------------------------|
 
G|1---1-------1---1-------1-------|----------1-1-------------------|
D|--------4-----------4-----------|--------4-----------------------|
A|--------------------------------|----------------------1---------|
E|--------------------------------|4---4-----------4---4---4-------|
 
G|6-------------------6---5---6---|5---5---3-----------------------|
D|--------------------------------|------------3-------3-----------|
A|--------------------------------|------------------------6---5---|
E|--------------------------------|--------------------------------|
 
G|--------------------------------|--------------------------------|
D|0-----------0---0---------------|1---------------1-----------4---|
A|--------------------------------|--------------------------------|
E|--------------------------------|--------------------------------|
 
G|1---1-------1---1-------1-------|----------1-1-------------------|
D|--------4-----------4-----------|--------4-----------------------|
A|--------------------------------|----------------------1---------|
E|--------------------------------|4---4-----------4---4---4-------|
 
G|6-------------------6---5---6---|5---5---3-----------------------|
D|--------------------------------|------------3-------------------|
A|--------------------------------|--------------------------------|
E|--------------------------------|--------------------------------|

            
            
Suggest correction
Creating personal tab
Creating personal tab
You can edit any tab online and save it as your Personal.

You can edit, replace or remove any tab part or add personal notes – all changes will be seen only by you.

Personal tabs can be accessed anytime from any device, even offline.
Learn more »
Give kudos to tab author, rate the tab!
1 2 3 4 5
comments
print report bad tab
guest
You may want to rate the tab now too:
select rating
Wanna post a correction for this tab? Suggest correction