Oops, an error
Loading. Please wait.

The Emotional Song Tab

10,599 views 48 this week
2 commentsread comments
1 2 3 4 5
excellent!
x 5
add to favorites
launch autoscroll
font size
0
reset
how to read this tab
guitar tuner
Tab Pro tools
  • play this tab
  • loop segment
  • change instrument
  • show fretboard
  • metronome
Autoscroll
slow
fast
+/-
esc
set tempo
stop
Contributor
Difficulty
intermediate
MAIN RIFFS

     E  E  E  Q.     Q       E  E  E  Q.     Q       E  E  E  Q.     Q
E||-----------------------|-----------------------|-----------------------|
B||-----------------------|-----------------------|-----------------------|
G||--------0--7------7----|--------0--7------7----|--------0--5------5----|
D||-----5------------5----|-----4------------4----|-----2------------2----|
A||--7---------------7----|--5---------------5----|--3---------------3----|
E||-----------------------|-----------------------|-----------------------|


  E  E  E  E  E  E  E  E   4x   E  E  E  E  E  E  E  E
---------------------------||---------------------------|
---------------------------||---------------------------|
--------0--2--0-----------*||*--------0--7--0-----------|
-----0-----------0-----0--*||*-----5-----------5-----5--|
--2-----------------2------||---7-----------------7-----|
---------------------------||---------------------------|


  E  E  E  Q.     Q       E  E  E  E  E  E  E  E     E  E  E  E  E  E  E  E   4x
-----------------------|--------------------------|---------------------------||
-----------------------|--------------------------|---------------------------||
--------0--7------L----|--------0--5--0-----------|--------0--2--0-----------*||
-----4------------L----|-----2-----------2-----2--|-----0-----------0-----0--*||
--5---------------L----|--3-----------------3-----|--2-----------------2------||
-----------------------|--------------------------|---------------------------||


   E  E  E  E  E  Q.        E  E  E  H           E  E  E  E  E  Q.
-------------------------|--------------------|------------------------|
------------0------------|--------------------|------------------------|
*--------------0---------|--------0--5--------|--------0--7--5--4------|
*--------2--------2------|-----2--------------|-----4------------------|
------2------------------|--3-----------------|--5---------------------|
---0---------------------|--------------------|------------------------|


  E  E  E  H              E  E  E  E  E  Q.        E  E  E  H
---------------------||-------------------------|--------------------|
---------------------||------------0------------|--------------------|
--------0--0--------*||*--------------0---------|--------0--5--------|
-----2--------------*||*--------2--------2------|-----2--------------|
--3------------------||------2------------------|--3-----------------|
---------------------||---0---------------------|--------------------|


  E  E  E  E  E  Q.        E  E  E  H
------------------------|---------------------||
------------------------|---------------------||
--------0--7--5--4------|--------0--0--------*||
-----4------------------|-----2--------------*||
--5---------------------|--3------------------||
------------------------|---------------------||


MELODIES
                                   4x   E  E  E  E  Q    Q
E||-------|-------|-------|--------||-------------------------|
B||-------|-------|-------|--------||-------------------------|
G||-------|-------|-------|-------*||*--------0--7--9----7----|
D||-------|-------|-------|-------*||*-----5------------------|
A||-------|-------|-------|--------||---7---------------------|
E||-------|-------|-------|--------||-------------------------|


  Q    Q    Q    E  E     H                 4x
-----------------------|-----------|--------||--------|-------|-------|
-----------------------|-----------|--------||--------|-------|-------|
-----------------5--4--|-----------|-------*||*-------|-------|-------|
-----------------------|--5--------|-------*||*-------|-------|-------|
-----------------------|-----------|--------||--------|-------|-------|
-----------------------|-----------|--------||--------|-------|-------|


             H.           E  E      E  Q    E     H.           E  E
--------||----------------------|--------------|---------------------|
--------||----------------------|--------------|---------------------|
-------*||*---------------------|--------------|---------------------|
-------*||*--9------------7--9--|--10--9----5--|--7------------7--9--|
--------||----------------------|--------------|---------------------|
--------||----------------------|--------------|---------------------|


  Q    E  Q
----------------||
----------------||
---------------*||
--7----5--5----*||
----------------||
----------------||




Duration Legend
---------------
W - whole
H - half
Q - quarter
E - 8th
S - 16th
T - 32nd
X - 64th
. - note dotted
|-n-|  - n-tuplets
comments
print report bad tab
2 comments total.
0 reply
S92394 wrote on April 26 2011, 05:40 pm

Does the molody fit into the main rifts , or does the molody simply overlap the main rifts? and what about the molodic part at the 2-3 minute part that is not included in the tab ?

0 reply
S92394 wrote on April 26 2011, 05:49 pm

melody* and i think you might have some melodies missing listen to the song at the 2 minute mark and listen and what you have here does not include that part

I want to post or [tab]
guest
You may want to rate the tab now too:
select rating
Please do not post tabs as comments. Select "correction" instead!