Oops, an error
Loading. Please wait.

Better Than Ever bass

186 views 1 this week
no commentswrite comment
1 2 3 4 5
1 last vote to show rating
add to favorites
×
Save as Personal and add changes to this tab that will be seen only by you. Learn more ›
×
You can save this tab as Personal to edit and correct it or add notes. All changes will be seen only by you. Learn more »
launch autoscroll
font size
0
reset
guitar tuner
edit
Autoscroll
slow
fast
+/-
esc
set tempo
stop
Author
Difficulty
-------------------------------------------------------------------------------
                        BETTER THAN EVER - Daniel Ingram
-------------------------------------------------------------------------------
Tabbed by: rillegas08
E-mail: rillegas08@yahoo.com

Tuning: B
Time Signature: 2/4 (I think)

In the "Bronies React" for the film "Rainbow Rocks", several of the reactors
pointed out that Rainbow Dash's line about Applejack's bass solo needed work
made no sense because there was no bass solo. That's only true on the sound-
track, as the film has an extra riff at the part when AJ sings. It's hard to
hear if you're not listening for it.

The way I tab, each hyphen is a sixteenth note. When you see a 20, it doesn't
mean the 20th fret; it's the 2nd fret followed immediately by an open string.
That's quick fingering, but you can do it!

EDIT: Although Applejack uses a 5-string bass she doesn't use the B string in
this song, so I've removed changed the tuning so people with 4-strings can play
it as well.

Verse 1
"There was a" - no one plays

"time we were..."
G --------------------------------|
D 0-------------------------------|
A --------0-----------------------|
E ----------------3---------------| x2

G ----------------------------------------------------------------|
D ----------------0-------------------------------0--0------------|
A 2-------0-----------------------2-------0-----------------------|
E ------------------------3-----------------------------3---------|

Chorus
G --------------------------------|
D 0--0--0-------------------------|
A --------0---0-----------2---0---|
E ----------------3---3-3---------| x2

G ----------------------------------------------------------------|
D 2---------------------------------------------------------------|
A ------3---------------0---------------3-----------------0-------|
E --------------3-----------------0---------------3-3-3-3---------|

G ----------------------------------------------------------------|
D 0---0---------------------------0---0---------------------------|
A ------2-0---0-----------2---0---------2-0---0-------------------|
E ----------------3---3---------------------------3-3-3-3-3-------|

Verse 2
"There was a..." - no one plays

"time we couldn't..."
G ------------------------------------20--------------------------|
D 0-------------------------------0--0--2-------------------------|
A --------0-------------------------------0--0--0-----------------|
E ----------------3-------------------------------3---------------|

G ----------------------------------------------------------------|
D ----------------0-----------------------------------------------|
A 2-------0-----------------------2-------0-----------------------|
E ------------------------3-----------------------2--2--3---------|

Chorus
G --------------------------------|
D 0--0--0-------------------------|
A --------0---0-----------2---0---|
E ----------------3---3-3---------| x2

G ----------------------------------------------------------------|
D 2---------------------------------------------------------------|
A ------3---------------0---------------3-----------------0-------|
E --------------3-----------------0---------------3-3-3-3---------|

G --------------------------------|
D 0---0---------------------------|
A ------2-0---0-----------2---0---|
E ----------------3---3-----------| x2

G --------------------------------|
D 0---0---------------------------|
A ------2-0---0-------------------|
E ----------------3---------------|
Suggest correction
Creating personal tab
Creating personal tab
You can edit any tab online and save it as your Personal.

You can edit, replace or remove any tab part or add personal notes – all changes will be seen only by you.

Personal tabs can be accessed anytime from any device, even offline.
Learn more »
Give kudos to tab author, rate the tab!
1 2 3 4 5
comments
print report bad tab
guest
You may want to rate the tab now too:
select rating
Wanna post a correction for this tab? Suggest correction