Oops, an error
Loading. Please wait.

Youre In My Head Like A Catchy Song tab

988 views 72 this week
no commentswrite comment
1 2 3 4 5
2 more votes to show rating
add to favorites
×
Save as Personal and add changes to this tab that will be seen only by you. Learn more ›
×
You can save this tab as Personal to edit and correct it or add notes. All changes will be seen only by you. Learn more »
launch autoscroll
font size
0
reset
how to read this tab
guitar tuner
edit
Autoscroll
slow
fast
+/-
esc
set tempo
stop
About this tab version
This is solo guitar that is mixing both parts. It's more difficult than the normal, but much more fun. Was this info helpful? Yes No
You're In My Head Like A Catchy Song by Daniel Ingram
For solo guitar

A really beautiful love ballad

The tab becomes convoluted trying to get the it in position with the lyrics,
so it's a good idea to practice with the song 
in the background for accuracy 

-This song isn't just one, but two guitars. 
I mixed the parts together, which will make this a tad difficult.
-I figured this out with a thumbpick, but hybrid picking, 
or using your thumb, is perfectly fine.
-I extended the outro a bit to include part of the credits portion of the song.
It is entirely optional if you want to play it or not.
-If you want to get creative, you can replace and/or extend the bridge section with a solo.
-The song also has a bit of a swing feel to it.

Important:
-A quick capo change is used and is marked by *Capo 7th* and *Capo off*
Have the capo close by, like on your leg.
-Everything in parentheses () is optional
-Tab legend is at the bottom of the page

[Intro] *Capo off*
e|-------2---------|-------3---------|-------3---------|-----------0-----|
B|-------3--3------|-------3--3------|-------3--3------|-------2h3-------|
G|-----2--------0--|-----0--------0--|-----0--------0--|-----2-----------|
D|--0----0----0----|------------0----|------------0----|-------------2---|
A|-----------------|-----------------|-----------------|--0----0---------|
E|-----------------|--0----0---------|--3----3---------|-----------------|

[Verse]
e|-------2---------|-------3---------|
B|-------3--3------|-------3--3------|
G|-----2--------0--|-----0--------0--|
D|--0----0----0----|------------0----|
A|-----------------|-----------------|
E|-----------------|--0----0----0----|      
We're far apart, in every way

e|-------3---------|-----------0-----|
B|-------3--3------|-------2h3-------|
G|-----0--------0--|-----2-----------|
D|------------0----|-------------2---|
A|-----------------|--0----0-----0---|
E|--3----3----3----|-----------------|         
But you're the best part of my day

e|-------2---------|-------3---------|
B|-------3--3------|-------3--3------|
G|-----2--------0--|-----0--------0--|
D|--0----0----0----|------------0----|
A|-----------------|-----------------|
E|-----------------|--0----0----0----|               
And sure as I, breathe the air

e|-------3---------|--0--------------|
B|-------3--3------|--2--------------|
G|-----0--------0--|--2--------------|
D|------------0----|--2--------------|
A|-----------------|--0--------------|
E|--3----3----3----|--0--------------|                      
I know we are the perfect pair 

[Chorus] *Capo 7th*
e|--3--------------|-----------------|-------2---------|--2----3--2-----|
B|--1----1---------|-------3--1------|-------3--3------|--3--3-3--3-----|
G|--0----0--0---0--|-------0------0--|----------0---0--|--2-------------|
D|--2--2------2----|-----2------2----|-----0------0----|--0---------0---|
A|--0--------------|--3----3---------|-----------------|--0-------------|
E|--0----0---------|-----------------|--3----3---------|--2----2--------|
On a prickly path that goes on for miles

e|-----------------|-----------------|-------2---------|------------------|
B|--1----1---------|--1----3--1------|-------3--3------|-------3---3------|
G|--0----0--0---0--|--0----0------0--|----------0---0--|-------0h2---2p0--|
D|--2--2------2----|--2--2------2----|-----0------0----|--0--0-0----------|
A|--0--------------|--3----3---------|-----------------|--0---------------|
E|--0----0---------|-----------------|--3----3---------|--2----2----------| 
But it's worth it just to see you smile

e|-------3---------|-------------------|
B|-------3--3------|-------3g0--1------|
G|----------0---0--|-------0--------0--|
D|-----0------0----|-----0-------------|
A|-----------------|--0----0------0----|
E|--3----3----3----|-------------------|                
And I cannot, be pulled apart

e|-------3---------|------------------|
B|-------1--1------|-----------3------|
G|--------------0--|-----0-0h2---2p0--|
D|-----2-----------|--0----0-----0----|
A|--3----3----3----|------------------|
E|-----------------|------------------|                
From the hold you have on my heart

e|-------3---------|-------3---------|
B|-------3--0------|-------1--1------|
G|----------0---0--|----------0---0--|
D|-----0------0----|-----0-----------|
A|-----------------|--0----0----0----|
E|--3----3----3----|-----------------|                
And even if the world tells us it's wrong

e|-------0---------|-----------------|
B|-------1---------|-----------------|
G|--------------0--|--0h2------------|
D|-----2-----------|--0--------------|
A|--3----3----3----|--0--------------|
E|-----------------|--2--------------|               
You're in my head like a catchy song~

[Bridge]
e|-------2--3------|-------2--3------|-------2--3--/5--|----3--2---------|
B|-------3--3------|-------3--3------|-------3--3--/3--|----3--3--3---0--|
G|--------------0--|--0-----------0--|-----------------|----------2---0--|
D|-----0------0----|--2--2------2----|-----2------2----|--0----0----0----|
A|-----------------|--0----0----0----|--3----3----3----|-----------------|
E|--3----3----3----|-----------------|-----------------|-----------------|

[Verse]
e|-------3---------|-------3---------|
B|-------3--0------|-------1--1------|
G|----------0---0--|----------0---0--|
D|-----0------0----|-----0-----------|
A|-----------------|--0----0----0----|
E|--3----3----3----|-----------------|                              
The seasons change, and leaves may fall

e|-------3---------|------------------|
B|-------1--1------|-----------3------|
G|--------------0--|-----0-0h2---2p0--|
D|-----2-----------|--0----0-----0----|
A|--3----3----3----|------------------|
E|-----------------|------------------|            
But I'll be with you through them all

e|-------3---------|-------3---------|-------0---------|-----------------|
B|-------3--0------|-------1--1------|-------1--1------|-------3---------|
G|----------0---0--|----------0---0--|----------0---0--|-----0----0---0--|
D|-----0------0----|-----0-----------|-----2-----------|--0----0----0----|
A|-----------------|--0----0----0----|--3----3----3----|-----------------|
E|--3----3----3----|-----------------|-----------------|-----------------|
And rain or shine, you'll always be mine

[Chorus]
e|-----------------|-----------------|-------2---------|-------------------|
B|--1----1---------|-------3--1------|-------3--3------|---------3---3-----|
G|--0----0--0---0--|-------0------0--|----------0---0--|-------0-0h2---0---|
D|--2--2------2----|-----2------2----|-----0------0----|--0/4----0---------|
A|--0--------------|--3----3---------|-----------------|-------------------|
E|--0----0---------|-----------------|--3----3---------|-------------------| 
On a prickly path that goes on for miles

e|-----------------|-----------------|-------2---------|------------------|
B|--1----1---------|--1----3--1------|-------3--3------|--3---------------|
G|--0----0--0---0--|--0----0------0--|----------0---0--|--2---------------|
D|--2--2------2----|--2--2------2----|-----0------0----|--0---------------|
A|--0--------------|--3----3---------|-----------------|--0---------------|
E|--0----0---------|-----------------|--3----3---------|--2---------------| 
You're the only one who makes it all worth while

[Outro]
e|-------3---------|-------3---------|
B|-------3--0------|-------3--1------|
G|----------0------|----------0------|
D|-----0-----------|-----0-----------|
A|-----------------|--0----0---------|
E|--3----3---------|-----------------|                     
And you should not blame me, too

e|-------3---------|-----------------|
B|-------3--1------|-----------------|
G|----------0------|--0h2------------|
D|-----0-----------|--0--------------|
A|--3----3---------|--0--------------|
E|-----------------|--2--------------|                     
If I can't help fallin' in love with you~

(Opt. Outro)
e|--3--------------|-----------------|-------3---------|--2----3p2-2----|
B|--1----1---------|-------0--1------|-------0--0------|--3----3---3----|
G|--0----0--0---0--|-------0------0--|----------0---0--|--0----0--------|
D|--2--2------2----|-----2------2----|-----0------0----|--0--0-------0--|
A|--0--------------|--3----3---------|-----------------|--0-------------|
E|--3--------------|-----------------|--3----3---------|--2-------------|

e|-----------------|------------------|-------3---------|-----------------|
B|--1----1---------|--1----1----------|-------0--0------|-------3---------|
G|--0-------0---0--|--0----0---0-0----|----------0---0--|--2----2--2p0----|
D|--2--2------2----|--2--2-0h2---2p0--|-----0------0----|--0--0-----------|
A|--0--------------|--3---------------|-----------------|--0-----------2--|
E|-----------------|------------------|--3----3---------|-----------------|

e|-----------------|
B|--0--------------|
G|--0--------------|
D|--0--------------|
A|--2--------------|
E|--3--------------|


***********************************

| /   Slide up
| \   Slide down
| h   Hammer-on
| p   Pull-off
| g   Grace Note

***********************************

            
            
Suggest correction
Creating personal tab
Creating personal tab
You can edit any tab online and save it as your Personal.

You can edit, replace or remove any tab part or add personal notes – all changes will be seen only by you.

Personal tabs can be accessed anytime from any device, even offline.
Learn more »
Give kudos to tab author, rate the tab!
1 2 3 4 5
comments
print report bad tab
guest
You may want to rate the tab now too:
select rating
Wanna post a correction for this tab? Suggest correction