Oops, an error
Loading. Please wait.

Black Night bass

25 views 1 this week
no commentswrite comment
1 2 3 4 5
3 more votes to show rating
add to favorites
×
Save as Personal and add changes to this tab that will be seen only by you. Learn more ›
×
You can save this tab as Personal to edit and correct it or add notes. All changes will be seen only by you. Learn more »
launch autoscroll
font size
0
reset
guitar tuner
edit
Autoscroll
slow
fast
+/-
esc
set tempo
stop
Author
Difficulty
Tabbed by: 6METAL6BASSIST6
E-mail: petergriffinav@gmail.com

Tuning: EADG

G|----------------------------------------------------------------|
D|--------1-----------------------------1-------------------------|
A|3-----3---------------------------3-----------------------------|
E|----------3---1-------------------------------------------------|

G|----------------------------------------------------------------|
D|--------1---------------------------------1---------------------|
A|3-----3-----------------------------3---------------------------|
E|----------3---1---------------------------------1---------------|

G|----------------------------------------------------------------|.
D|--------1-----------------------------1-------------------------|.
A|3-----3---------------------------3-----------------------------|.
E|----------3---1-------------------------------------------------|.
                                                                   . x2
G|----------------------------------------------------------------|.
D|--------1---------------------------------1---------------------|.
A|3-----3-----------------------------3-----------------------1---|.
E|----------3---1---------------------------------1---------------|.

G|----------------------------------------------------------------|
D|--------1-------------------------------1-----------------------|
A|3-----3---------------------------3-----------------------------|
E|----------3---1-------------------------------------------------|

G|----------------------------------------------------------------|
D|--------1---------------------------------1---------------------|
A|3-----3-----------------------------3---------------------------|
E|----------3---1---------------------------------1---------------|

0:39

G|----------------------------------------------------------------|.
D|--------1-----------------------------1-------------------------|.
A|3-----3---------------------------3-----------------------------|.
E|----------3---1-------------------------------------------------|.
                                                                   .
G|----------------------------------------------------------------|.
D|--------1---------------------------------1---------------------|.
A|3-----3-----------------------------3-----------------------1---|.
E|----------3---1---------------------------------1---------------|.
                                                                   . x2
G|----------------------------------------------------------------|.
D|--------1-----------------------------1-------------------------|.
A|3-----3---------------------------3-----------------------------|.
E|----------3---1-------------------------------------------------|.
                                                                   .
G|----------------------------------------------------------------|.
D|--------1---------------------------------1---------------------|.
A|3-----3-----------------------------3---------------------------|.
E|----------3---1---------------------------------1---------------|.

1:18

G|----------------------------------------------------------------|
D|--------1-----------------------------1-------------------------|
A|3-----3---------------------------3-----------------------------|
E|----------3---1-------------------------------------------------|

G|----------------------------------------------------------------|
D|--------1---------------------------------1---------------------|
A|3-----3-----------------------------3-----------------------1---|
E|----------3---1---------------------------------1---------------|

G|----------------------------------------------------------------|
D|--------1-----------------------------1-------------------------|
A|3-----3---------------------------3-----------------------------|
E|----------3---1-------------------------------------------------|

G|----------------------------------------------------------------|
D|--------1---------------------------------1---------------------|
A|3-----3-----------------------------3---------------------------|
E|----------3---1---------------------------------1-----/-13------|

1:37

G|----------------------------------------------------------------|
D|--------1-----------------------------1-------------------------|
A|3-----3---------------------------3-----------------------------|
E|----------3---1-------------------------------------------------|

G|----------------------------------------------------------------|
D|--------1---------------------------------1---------------------|
A|3-----3-----------------------------3-----------------------1---|
E|----------3---1---------------------------------1---------------|

G|----------------------------------------------------------------|
D|--------1-------------------------------1-----------------------|
A|3-----3-------------------------3-----3-------------------------|
E|----------3---1---------------------------3---1-------/-13------|

1:51

G|11----11-11--------10---------------------------------------------|
D|-------------------------11--8--------------------------9---------|
A|-----------------------------------11-8-----9-----11--------11----|
E|--------------------------------------------------------------13\-|

G|------------------------------------------------------------------|
D|----------/-10----8---------10-10-8-------------------------------|
A|------8-----------------8---------------8-8-------------8-8-------|
E|6-----------------------------------------------6-6---------------|

G|------------------------------------------------------------|
D|------------------------------------------------6---------6-|
A|8-----8---8-8-----------8-----8-----9-----------------------|
E|------------------------------------------------------------|

G|----------------------------------------------------------------------------|
D|8---------------------------------------------------------------------------|
A|----------------------------------------------------------------------------|
E|--------------------------------------------3-------------------------------|

2:12

G|----------------------------------------------------------------|.
D|--------1-----------------------------1-------------------------|.
A|3-----3---------------------------3-----------------------------|.
E|----------3---1-------------------------------------------------|.
                                                                   .
G|----------------------------------------------------------------|.
D|--------1---------------------------------1---------------------|.
A|3-----3-----------------------------3-----------------------1---|.
E|----------3---1---------------------------------1---------------|.
                                                                   . x2
G|----------------------------------------------------------------|.
D|--------1-----------------------------1-------------------------|.
A|3-----3---------------------------3-----------------------------|.
E|----------3---1-------------------------------------------------|.
                                                                   .
G|----------------------------------------------------------------|.
D|--------1---------------------------------1---------------------|.
A|3-----3-----------------------------3---------------------------|.
E|----------3---1---------------------------------1-----/-13------|.

2:50 Until fadeout.

G|----------------------------------------------------------------|
D|--------1-------------------------------------------------------|
A|3---------------------------------3-----------------------------|
E|----------3---1-------------------------------------------------|

G|----------------------------------------------------------------|
D|--------1---------------------------------1---------------------|
A|3-----3-----------------------------3-----------------------1---|
E|----------3---1---------------------------------1---------------|

G|----------------------------------------------------------------|
D|--------1-----------------------------1-------------------------|
A|3-----3---------------------------3-----------------------------|
E|----------3---1-------------------------------------------------|

G|----------------------------------------------------------------|
D|--------1---------------------------------1---------------------|
A|3-----3-----------------------------3---------------------------|
E|----------3---1---------------------------------1-----/-13------|

            
            
Suggest correction
Creating personal tab
Creating personal tab
You can edit any tab online and save it as your Personal.

You can edit, replace or remove any tab part or add personal notes – all changes will be seen only by you.

Personal tabs can be accessed anytime from any device, even offline.
Learn more »
Give kudos to tab author, rate the tab!
1 2 3 4 5
comments
print report bad tab
guest
You may want to rate the tab now too:
select rating
Wanna post a correction for this tab? Suggest correction