Oops, an error
Loading. Please wait.

Sonho Dourado tab

version 3
version 3

Whole song

Interactive

558 views 12 this week
no commentswrite comment
1 2 3 4 5
3 more votes to show rating
add to favorites
×
Save as Personal and add changes to this tab that will be seen only by you. Learn more ›
×
You can save this tab as Personal to edit and correct it or add notes. All changes will be seen only by you. Learn more »
launch autoscroll
font size
0
reset
how to read this tab
guitar tuner
edit
Autoscroll
slow
fast
+/-
esc
set tempo
stop
Author
Daniel Lanois - Sonho Dourado


Tab by Avi Yaacov
Israel, July 2015


Amazing, powerful piece of music...




           ::::::     LIVE VERSION     ::::::


Played in open tuning (low to high):
F, F, C, F, A, C
                 (maybe use www.get-tuned.com/online_guitar_tuner.php, quite helpful)



Chords:
C|---------------------|----------------------------|------------------------------|
A|---------------------|---------------------8------|------------------------------|
F|---7-/-12---14-16vv--|--16-14h16p14/12---9---7-7--|--5h7p5/4--/7----12-11-12-14--|
C|--(0)----------------|------------------(10)------|--------------------------(0)-|
F|--(0)----------------|----------------------------|------------------------------|
F|--(0)----------------|-------------------------0--|--0---------------------------|


C|------------------------------|----------------------------|
A|-----5/7-------7h8---8--7--5--|------5-3-------------------|
F|---5---------7----------------|----5---0-4-2p0--2----0--0--|
C|-5---------7------------------|--5--------------0----------|
F|---------------------0-----5--|----------------------------|
F|-5---------7------------------|--------0----------------0--|


C|---------------------|------------------------|-------------------------7----|
A|---------------------|------------5-----3-3---|------------------(15)---7----|
F|---7-/-12---14-16vv--|--16-14-12--5-----------|--7-/-12---14-16v-------------|
C|--(0)----------------|------------------------|------------------------------|
F|--(0)----------------|------------5-------0---|------------------------------|
F|--(0)----------------|------------------------|--------------0----------7----|


C|--------------5/7---7-------------------------|------------5-7-------------|
A|------8p7---5----------------8/10-12-13----5--|------3-------7--7--8vvv----|
F|----7-------0--------------7---------------0--|----0-----------------------|
C|----------------------------------------------|----------------------------|
F|----------------------------------12-------5--|--5-------------------------|
F|--7---------5-------7----7--------------------|--------------7-----0-------|


C|----------------------------|------------|--------------5-5h7-5--7-----|
A|--10/12-12--10--10/12-12vv--|--5--3--3---|--0h1-1h3vv------------7-----|
F|--0-------------------------|--0-----0---|--0-----0--------------------|
C|----------------------------|------------|-----------------------------|
F|----------------------------|------------|-----------------------------|
F|--0-------------------------|--5-----0---|--0-----0--------------7-----|


C|-------------------------------------------------------|---------------------------------|
A|--10p8-7---5-/-8/10--10---8h10/12vv--10h12p10/8---8-5--|--5h7p5-3----/10-10-8h10p8/7--8--|
F|--7--------5---------7---------------------------------|--------0---------------------0--|
C|-------------------------------------------------------|---------------------------------|
F|--------------------------------------------------5----|---------------------------------|
F|--7--------5---------7---------------0-----------------|--------0---------------------0--|




Everything’s built around the following chord progression:


    F   F   Bb  F      F   F   C   C         Bb  C   F   Bb     F   C   F

C|--0---0---5---0---|--0---0---7---7---||----5---7---0---5------0---7---0---|
A|--0---0---5---0---|--0---0---7---7---||----5---7---0---5------0---7---0---|
F|--0---0---5---0---|--0---0---7---7---||----5---7---0---5------0---7---0---|
C|--0---0---5---0---|--0---0---7---7---||----5---7---0---5------0---7---0---|
F|--0---0---5---0---|--0---0---7---7---||----5---7---0---5------0---7---0---|
F|--0---0---5---0---|--0---0---7---7---||----5---7---0---5------0---7---0---|


There’s a video on youtube (www.youtube.com/watch?v=h-uh3YKXakE) 
where you can clearly see the guy next to him playing these chords in regular tuning 
on acoustic guitar (his fingering is uncommon though).








           ::::::     STUDIO VERSION     ::::::


Now... In regards to the version from FRIDAY NIGHT LIGHTS,

That tuning is completely different,
     the chords progression is:

    B   B   E  B       B   B   F#   F#         E   F#   B   E      B   F#   B


There’s a tab of that I posted years ago, and here’s a better one,  
for ONE guitar:


        B               E       B        B            F#

e|---------|----------------4-------|----------------------|
B|--0h2-4--|----4-2p0-------5---4---|----------------------|
G|------4--|---4^---------------4---|--4-4h6-4h6b---4--3---|
D|---------|---4^-----4-4/6---4-----|-----------------4^---|
A|------2--|--------------------2---|-----------------4^---|
E|---------|------------0-----------|-----------------2^---|




                      E           F#         B   E        B         F#     B

e|----------------|-------4-6---------6-7----7-6------------------------------|
B|--2h4-2h4b-2----|-----5----------/7------------9--------7b------------------|
G|-------------4--|---4-----------6---------------------9----8-6--------------|
D|----------------|---6-----------4-------------------9----------9-/11--9--9--|
A|----------------|------------------------------7------------------9------9--|
E|----------------|---0----------------------7------------(7)--------------7--|
 
         ~ OR in the following manner ~

e|-----------------------------------------------------------------------|
B|-----------------------------------------------------------------------|
G|-------13-15---------15-16---16-15--13---------------------------------|
D|------------------16------------------------14-16^-13-11-9-9h11---9-9--|
A|----14-----------------------14----------14----------------9--------9--|
E|--0------------14-------------------0-------------------------------7--|




          B                E         B             B                  F#
 
e|---------------------------------------|----------------------------------|
B|----4h5/7vv----4-2-0h2p0------0--------|----------------------------------|
G|--4----------------------1vv-----------|----------------------------------|
D|--------------------------------/4-4v--|--2h4p2/1--/4--/9--/8--/9--/11----|
A|-----------------------------------2---|----------------------------9-----|
E|--------7----------------0-------------|----------------------------------|




              E      F#        B      E       B          F#    B
   
e|---------|-----------------6/7---------|-------------------------|
B|-----11--|--0h9/11-11----7--------7-9--|----7b-------------------|
G|--11-----|-----------------------------|--9----8-6-4--4h6--4-4---|
D|---------|-----------------------------|--------------4------4---|
A|---------|---------9-------------------|---------------------2---|
E|---------|--0----------------7------0--|----7--------------------|




      B                           E   B B       B                              F#

e|------------------------------------------|--------------------------------------|
B|----4-4-4-4--2-2-2h4----2h4p2---9---7-7---|--------------------------------------|
G|----4-4-4-4--------4------------9---8-8---|---8h9/11-11--9h11p9/8--/6--/4---/6---|
D|----4-4---4--------4------------9---9-9---|---9----------------------------------|
A|--------2----------2------------7---9-9---|---9------------------------------9---|
E|------------------------------------------|--------------------------------------|



{1:10)

     F#     F#         E         F#          B       E      B           F#   B 
   
e|---6-------------|------4-6--------6-7---6h7-6h7p6/4-------------------------|
B|-----------------|----5----------7---------------------5--7-----------2--0-0-|
G|---6h8p6--6h8p6--|--4----------6-----------------------------8--6--4---------|
D|-----------------|-(2)---------4---------------------------------------------|
A|-----------------|---------------------------------------------------------2-|
E|-----------------|--0----------------------7-------0------7-----------2------|




    B                      E   B            B                  F#

e|---------------------------------|--------------------------------|
B|---------------------------------|--0h4h5/7------------------0h2--|
G|--8-8-6-6-6/8-8v---/11---9--8-8--|------------8-6-4h6p4/3-4-------|
D|---------------------------------|---------------------------4----|
A|---------------------------------|--------------------------------|
E|--7----------------------0----7--|--------7-----------------------|




    F#             E           F#             B              E        B               F#     B

e|-------------|---------------------------------------------------|----------------------------|
B|--2/4/2------|----------9/11-11-----11-12--/16--16-16-16--16/17--|----------------------------|
G|--------4-3--|---------------------------------------------------|--9h11-9h11-8-6-4-4h6--4-4--|
D|-------------|--2-4/6------------11------------------------------|--9---------------4------4--|
A|-------------|---------------9-----------------------------------|-------------------------2--|
E|-------------|--0-----------------------------------------0------|----------------------------|



        B                                   E  B                B                F#    

e|------------------------------------------0--2-2----|------------------------------|
B|--/16-16--16-16--14-14-14--16-16-16-------0--4-4----|-------------12-11h12-12--11--|
G|------------------------------------------1--4-4----|--4/8-h9-11-------------------|
D|------------------------------------------2--4-4----|---------9--------------------|
A|-------------14---------------------------2--2-2----|--------------------------9---|
E|------------------------------------14/---0---------|------------------------------|
                                  pull back




                    E         F#           B         E        B        F#        B
                                                                                        {2:17)
e|---------------|---------------------------------------|-------------------------|
B|--11-11h12p11--|------9-11--------11-12--11h12p11--9---|--7-7--------0h2----0-0--|
G|---------------|----9----------11------------------9---|------8-6-4--------------|
D|---------------|--9---------11-----------9---------9---|-------------------------|
A|---------------|------------9--------------------------|----------------------2--|
E|---------------|--0------------------------------------|----7--------2-----------|





    B                  E          B             B             F#

e|------------------|-----------------|--------------------------|
B|--/4-4---4-4-2----|-----------------|-------------4-2-------2--|
G|--/4-4---4-4---4--|-----------------|-------------4---4-3-4----|
D|------------------|--4/6--4/6--4-4--|--4h6p4/------------------|
A|---------2--------|--------------2--|---------2----------------|
E|------------------|--0--------------|-----------------------2--|




                E         F#          B    E           B      F#    B

e|---------|--------4-6--------6-7--6h7--6-4---------4-2----------------|------------|
B|--2/4-2--|------5----------7---------------------5-----4-2p0-0h2br0---|---------4--|
G|---------|----4----------6---------------------4----------------------|--4-3-/4----|
D|---------|---------------4--------------------------------------------|------------|
A|---------|-------------------------------------------2------------2---|------------|
E|---------|----0---------------------7----0-------------------2--------|------------|


[2:45]

    E          F#             B           E           B           F#            B

e|--------------------------------------------|----------|----7------|--------------|
B|---------9/11-11-----11/16--16-14-----------|----9--7--|--7----11--|--------------|
G|----------------------------------16-15-13--|--9-------|-----------|--11/15--16---|
D|------6-----------11------------------------|----------|-----------|--------------|
A|----7---------9-------------14--------------|----------|-------9---|---------14---|
E|--7-------------------------------------0---|-------7--|-----------|--------------|



                           E          B           F#      B

e|-----------------------------|------------------------------|
B|--16/pull back fast------9---|----7-7-----------0h2br0--0---|
G|-------------------------9---|--------8-6/4-------------4---|
D|-------------------------9---|--------------------------4---|
A|-------------------------7---|--------------------------2---|
E|-------------------------0---|------7-----------2-----------|


   

    B          B                 B

e|-----------------------------------|
B|--4p2-------4p2-------4-/5~~---4---|
G|------4---------4--------------4---|
D|--------4---------4------------4---|
A|----------------------2--------2---|
E|-----------------------------------|
Suggest correction
Creating personal tab
Creating personal tab
You can edit any tab online and save it as your Personal.

You can edit, replace or remove any tab part or add personal notes – all changes will be seen only by you.

Personal tabs can be accessed anytime from any device, even offline.
Learn more »
Give kudos to tab author, rate the tab!
1 2 3 4 5
comments
print report bad tab
guest
You may want to rate the tab now too:
select rating
Wanna post a correction for this tab? Suggest correction