Oops, an error
Loading. Please wait.

Photos Tab

version 3
version 3

Whole song

Interactive

12,045 views 1 this week
no commentswrite comment
1 2 3 4 5
please rate
add to favorites
launch autoscroll
font size
0
reset
how to read this tab
guitar tuner
Autoscroll
slow
fast
+/-
esc
set tempo
stop
Help us to improve Ultimate-Guitar.com Take our survey!
×
One of my favorite song's from the Dexter.
This is my first tab, so it won't be perfect, but I hope you enjoy it. =P

E|----1-0--------------------------------------|
B|---------------------------------------------|
G|--2-------------5-4---------5----------------|
D|0-------------2------------------------------|
A|------------0------------5-------------------|
E|-----------------------3---------------------|

E|----------------------------1-0-0h1----------|
B|---------------------------------------------|
G|--------2----------4------2------------------|
D|------------------------0--------------------|
A|------3---3-----5----------------------------|
E|0-2-3---------3------------------------------|

E|----1----------------------------------------|
B|---------------------------------------------|
G|--2---2---------5-----------5---4------------|
D|0-------------2---2--------------------------|
A|------------0------------5----5--------------|
E|-----------------------3---------------------|

E|----------------------------1-0-0h1----------|
B|---------------------------------------------|
G|--------2----------4------2------------------|
D|------------------------0--------------------|
A|------3---3-----5----------------------------|
E|0-2-3---------3------------------------------|

E|---------------------------------------------------------------------|
B|---------------------------------------------------------------------|
G|-------2--------4--------2--------4-------2--------4-----------6-3-6-|
D|-------------------------------------------------------------2-------|
A|-----3---3----5--------3---3----5-------3---3----5---5-----0---------|
E|-2-3--------3--------0--------3-------0--------3---------------------|

E|----1----------------------------------------|
B|---------------------------------------------|
G|--2---2---------5-----------5---4------------|
D|0-------------2---2--------------------------|
A|------------0------------5----5--------------|
E|-----------------------3---------------------|

E|----------------------------1-0-0h1----------|
B|---------------------------------------------|
G|--------2----------4------2------------------|
D|------------------------0--------------------|
A|------3---3-----5----------------------------|
E|0-2-3---------3------------------------------|
Suggest correction
Give kudos to tab author, rate the tab!
1 2 3 4 5
comments
print report bad tab
guest
You may want to rate the tab now too:
select rating
Wanna post a correction for this tab? Suggest correction