Oops, an error
Loading. Please wait.

Eldorado Baby tab

version 2
version 2

Whole song

520 views 1 this week
1 commentread comment
1 2 3 4 5
2 more votes to show rating
add to favorites
×
Save as Personal and add changes to this tab that will be seen only by you. Learn more ›
×
You can save this tab as Personal to edit and correct it or add notes. All changes will be seen only by you. Learn more »
launch autoscroll
font size
0
reset
how to read this tab
guitar tuner
edit
Autoscroll
slow
fast
+/-
esc
set tempo
stop
PART I
 E|------------------------------------|
 B|-(3/)5-5--3-0-----------------------|
 G|--------------1-0-------------------| x2 
 D|------------------------------------|
 A|-------------------------22-22-22-22|
 E|-------------------------00-33-00-33|              

PART II
 E|------------------------------------|
 B|-(3/)5-5--3-0-----------------------|
 G|--------------1-0-------------------| x1
 D|------------------------------------|
 A|-------------------------77-77-77-77|
 E -------------------------55-88-55-77|

 repeat this through the whole song: PART I
                                     PART II
                                     PART I
                                     PART II ....................

 Have fun................Rock'N'Roll is gonna keep me alive!
                                        

            
            
Suggest correction
Creating personal tab
Creating personal tab
You can edit any tab online and save it as your Personal.

You can edit, replace or remove any tab part or add personal notes – all changes will be seen only by you.

Personal tabs can be accessed anytime from any device, even offline.
Learn more »
Give kudos to tab author, rate the tab!
1 2 3 4 5
comments
print report bad tab
1 comment total.
0 reply
HIM-616 31 Jun 18, 2008 05:52 AM

like it just one error
E|--0--0-0--0-------------------------|
B|-(3/)5-5--3-0-----------------------|
G|--------------2-0-------------------|
D|------------------------------------|
A|-------------------------22-22-22-22|
E|-------------------------00-33-00-33|


thanks for the tab

guest
Wanna post a correction for this tab? Suggest correction