Oops, an error
Loading. Please wait.

Pangako Ko Sayo tab

685 views 6 this week
no commentswrite comment
1 2 3 4 5
x 6
add to favorites
×
Save as Personal and add changes to this tab that will be seen only by you. Learn more ›
×
You can save this tab as Personal to edit and correct it or add notes. All changes will be seen only by you. Learn more »
launch autoscroll
font size
0
reset
how to read this tab
guitar tuner
edit
Autoscroll
slow
fast
+/-
esc
set tempo
stop
-------------------------------------------------------------------------------
                             PANGAKO KO SAYO - DANIEL OMBAO
-------------------------------------------------------------------------------
Tabbed by:MARVIN S.
E-mail:overture_1995@yahoo.com
FB:/overture1995

PAKINGGAN NYO NLNG MABUTI UNG KANTA :)

Tuning:STANDARD

CAPO 1ST FRET

INTRO
    G     G     Em    Em    C9    C9    D     D
e|--2--X--2--X--2--X--2--X--3--X--3--X--5--X--5--X----|
B|--3--X--3--X--3--X--3--X--3--X--3--X--5--X--5--X----|
G|--0--X--0--X--0--X--0--X--0--X--0--X-----X-----X----|
D|-----X-----X--2--X--2--X-----X-----X--0--X--0--X----|
A|-----X-----X-----X-----X--3--X--3--X-----X-----X----|
E|--3--X--3--X-----X-----X-----X-----X-----X-----X----|



VERSE
    G     G     Em    Em    C9    C9    Am    D
e|--2--X--2--X--2--X--2--X--3--X--3--X--3--X--3--X----|
B|--3--X--3--X--3--X--3--X--3--X--3--X--1--X--3--X----|
G|--0--X--0--X--0--X--0--X--0--X--0--X--0--X--2--X----|
D|-----X-----X--2--X--2--X-----X-----X-----X--0--X----|
A|-----X-----X-----X-----X--3--X--3--X--0--X-----X----|
E|--3--X--3--X-----X-----X-----X-----X-----X-----X----|

    G     G     Em    Em    C9    C9    Am    Cm
e|--2--X--2--X--2--X--2--X--3--X--3--X--3~----3~----|
B|--3--X--3--X--3--X--3--X--3--X--3--X--1~----4~----|
G|--0--X--0--X--0--X--0--X--0--X--0--X--0~----3~----|
D|-----X-----X--2--X--2--X-----X-----X--------5~----|
A|-----X-----X-----X-----X--3--X--3--X--0~----3~----|
E|--3--X--3--X-----X-----X-----X-----X--------------|



CHORUS
    C9    C9    D     D     G     F#/D    Em     D
e|--3--X--3--X--3--X--3--X--3--X---3--X---3--X---3--X----|
B|--3--X--3--X--3--X--3--X--3--X---3--X---3--X---3--X----|
G|--0--X--0--X--2--X--2--X--0--X---0--X---0--X---2--X----|
D|-----X-----X--0--X--0--X--5--X-5-4--X-4-2--X-2-0--X----|
A|--3--X--3--X-----X-----X-----X------X------X------X----|
E|-----X-----X-----X-----X-----X------X------X------X----|

    C9    C9    D     D     G    F#/D   Em    D     Am    Am    D     D
e|--3--X--3--X--3--X--3--X--3--X--3--X--3--X--3--X--3--X--3--X-----3----2~----|
B|--3--X--3--X--3--X--3--X--3--X--3--X--3--X--3--X--1--X--1--X----3----3~-----|
G|--0--X--0--X--2--X--2--X--0--X--0--X--0--X--2--X--0--X--0--X---2----2~------|
D|-----X-----X--0--X--0--X--5--X--4--X--2--X--0--X-----X-----X--0----0~-------|
A|--3--X--3--X-----X-----X-----X-----X-----X-----X--0--X--0--X----------------|
E|-----X-----X-----X-----X-----X-----X-----X-----X-----X-----X----------------|



INTRO II
    G     G     Em    Em    C9    C9    Am    Dsus
e|--2--X--2--X--2--X--2--X--3--X--3--X-----X-----0~---|
B|--3--X--3--X--3--X--3--X--3--X--3--X--3--X----3~----|
G|--0--X--0--X--0--X--0--X--0--X--0--X--0--X---2~-----|
D|-----X-----X--2--X--2--X-----X-----X-----X--0~------|
A|-----X-----X-----X-----X--3--X--3--X--0--X----------|
E|--3--X--3--X-----X-----X-----X-----X-----X----------|


VERSE II
    G     G     Em    Em    C9    C9    Am    D
e|--2--X--2--X--2--X--2--X--3--X--3--X--3--X--3--X----|
B|--3--X--3--X--3--X--3--X--3--X--3--X--1--X--3--X----|
G|--0--X--0--X--0--X--0--X--0--X--0--X--0--X--2--X----|
D|-----X-----X--2--X--2--X-----X-----X-----X--0--X----|
A|-----X-----X-----X-----X--3--X--3--X--0--X-----X----|
E|--3--X--3--X-----X-----X-----X-----X-----X-----X----|

    G     G     Em    Em    C9    C9    Am    Cm
e|--2--X--2--X--2--X--2--X--3--X--3--X--3~----3~----|
B|--3--X--3--X--3--X--3--X--3--X--3--X--1~----4~----|
G|--0--X--0--X--0--X--0--X--0--X--0--X--0~----3~----|
D|-----X-----X--2--X--2--X-----X-----X--------5~----|
A|-----X-----X-----X-----X--3--X--3--X--0~----3~----|
E|--3--X--3--X-----X-----X-----X-----X--------------|



CHORUS II
    C9    C9    D     D     G     F#/D    Em     D
e|--3--X--3--X--3--X--3--X--3--X---3--X---3--X---3--X----|
B|--3--X--3--X--3--X--3--X--3--X---3--X---3--X---3--X----|
G|--0--X--0--X--2--X--2--X--0--X---0--X---0--X---2--X----|
D|-----X-----X--0--X--0--X--5--X-5-4--X-4-2--X-2-0--X----|
A|--3--X--3--X-----X-----X-----X------X------X------X----|
E|-----X-----X-----X-----X-----X------X------X------X----|

    C9    C9    D     D     G    F#/D   Em    D     Am    Am    D     D
e|--3--X--3--X--3--X--3--X--3--X--3--X--3--X--3--X--3--X--3--X-----3----2~----|
B|--3--X--3--X--3--X--3--X--3--X--3--X--3--X--3--X--1--X--1--X----3----3~-----|
G|--0--X--0--X--2--X--2--X--0--X--0--X--0--X--2--X--0--X--0--X---2----2~------|
D|-----X-----X--0--X--0--X--5--X--4--X--2--X--0--X-----X-----X--0----0~-------|
A|--3--X--3--X-----X-----X-----X-----X-----X-----X--0--X--0--X----------------|
E|-----X-----X-----X-----X-----X-----X-----X-----X-----X-----X----------------|



ADLIB(FINGERSTYLE)
    G      G      Em                        C9     C9       C9 D     D
e|---------------------------------------------------------------------------|
B|---------0----------0-----0----------------------------------------3~------|
G|--0H2-----------0H2-----2-------2---0-------0----------------------2~------|
D|--0-------------2----------------------4--4------0H2--------0--------------|
A|------------------------------------------3------3---------3---------------|
E|--3---X--3---X--------X-----------------------X----------X-------X----X----|


    G      G      Em         Em              C9           C9       D    D
e|--4s5~---5s7~--------7-----7---------------10--10s12----------------3----2~----|
B|--3------3------9s10-----10-----10--8--7---8------------12s13------3----3~-----|
G|----------------9-------------------------------------------------2----2~------|
D|-----------------------------------------------------------------0----0~-------|
A|-------------------------------------------------------------------------------|
E|--3---X--3---X--0------X---0---------------8---------X--8-----X----------------|



CHORUS III                 
                          (------STRUMMING-----)
    C9    C9    D     D     G    F#/D   Em    D
e|--3--X--3--X--3--X--3--X--3--X--3--X--3--X--3--X----|
B|--3--X--3--X--3--X--3--X--3--X--3--X--3--X--3--X----|
G|--0--X--0--X--2--X--2--X--0--X--0--X--0--X--2--X----|
D|-----X-----X--0--X--0--X--5--X--4--X--2--X--0--X----|
A|--3--X--3--X-----X-----X-----X-----X-----X-----X----|
E|-----X-----X-----X-----X-----X-----X-----X-----X----|

    C9    C9    D     D     G    F#/D   Em    D     C9    C9    D            D
e|--3--X--3--X--3--X--3--X--3--X--3--X--3--X--3--X--3--X--3--X-----3----5--3----2~--|
B|--3--X--3--X--3--X--3--X--3--X--3--X--3--X--3--X--3--X--3--X----3------------3~---|
G|--0--X--0--X--2--X--2--X--0--X--0--X--0--X--2--X--0--X--0--X---2----2-------2~----|
D|-----X-----X--0--X--0--X--5--X--4--X--2--X--0--X-----X-----X--0------------0~-----|
A|--3--X--3--X-----X-----X-----X-----X-----X-----X--3--X--3--X----------------------|
E|-----X-----X-----X-----X-----X-----X-----X-----X-----X-----X----------------------|
     G
e|----------3~-----|
B|---------3~------|
G|------3H4~-------|
D|-----5~----------|
A|----5~-----------|
E|---3~------------|


************************************

| s   slide 
| H   hammer-on
| ~   vibrato
| x   tap

************************************

paki rate nlng po salamat :)
pakinggan nyo mabuti ung kanta ha :)
Suggest correction
Creating personal tab
Creating personal tab
You can edit any tab online and save it as your Personal.

You can edit, replace or remove any tab part or add personal notes – all changes will be seen only by you.

Personal tabs can be accessed anytime from any device, even offline.
Learn more »
comments
print report bad tab
guest
You may want to rate the tab now too:
select rating
Wanna post a correction for this tab? Suggest correction