Oops, an error
Loading. Please wait.

Nasa Iyo Na Ang Lahat Tab

version 1
version 1

Whole song

16,657 views 9 this week
no commentswrite comment
1 2 3 4 5
3 more votes to show rating
add to favorites
launch autoscroll
font size
0
reset
how to read this tab
guitar tuner
Autoscroll
slow
fast
+/-
esc
set tempo
stop
Help us to improve Ultimate-Guitar.com Take our survey!
×
Author
Capo
2nd fret
Nasa Iyo Na Ang Lahat
Interpreted by: Daniel Padilla
Composer: Jungee Marcelo

Key of A
Capo 2 (All Chords Relative to Capo)

Riff (Entire Song)

   G - Am - C - D
e|-7----9---8--10--|
B|-8---10---8---8--|
G|-----------------|
D|-----------------|
A|-----------------|
E|-----------------|

Refrain

   G - Am - C - D
e|-3----5---0---2--|
B|-3----5---1---3--|
G|-4----5---0---2--|
D|-5----7---2---0--|
A|-5----7---3---X--|
E|-3----5---X---X--|

Chorus

   G - D/F# - Em - D - C - Bm - F - D/F#
e|-3----2------0---2---0----2---1----2---|
B|-3----3------0---3---1----3---1----3---|
G|-0----2------0---2---0----4---2----2---|
D|-0----0------2---0---2----4---3----0---|
A|-2----0------2---X---3----2---3----0---|
E|-3----2------0---X---X----X---1----2---|

Verse
   Em - D - C - C - D
e|--0---2---0---0---2--|
B|--0---3---1---1---3--|
G|--0---2---0---0---2--| Play
D|--2---0---2---2---0--| 2x
A|--2---X---3---3---X--| Then play below:
E|--0---X---X---X---X--|

Note: The last C - D actually plays as one beat (both half)

   Bm - Em - Am - Am - D             Dm7
e|--2----0----0----0---2--|      e|---1---|
B|--3----0----1----1---3--|      B|---1---|
G|--4----0----2----2---2--| Play G|---2---| Replace Am's with
D|--4----2----2----2---0--| 2x   D|---0---| Dm7 on 2nd play
A|--2----2----0----0---X--|      A|---X---|
E|--X----0----X----X---X--|      E|---X---|

Note: The last Am - D actually plays as one beat (both half)

Progression:
Riff (Entire Song - Whenever you hear the high notes)
Refrain
Verse
Chorus
Refrain
Verse
Chorus (Replace last D with E (022100) or move capo to 4th fret and play D)
(Move Capo to 4th Fret or Transpose this tab two semitones higher, becomes Key of B -- 
including the Riff)
Chorus
Refrain

Ends with G (Capo 4)(320033) or A (Capo 2)(002220)
Suggest correction
Give kudos to tab author, rate the tab!
1 2 3 4 5
comments
print report bad tab
guest
You may want to rate the tab now too:
select rating
Wanna post a correction for this tab? Suggest correction