Oops, an error
Loading. Please wait.

Not Coming Back Tab

85 views 1 this week
no commentswrite comment
1 2 3 4 5
1 last vote to show rating
add to favorites
launch autoscroll
font size
0
reset
how to read this tab
guitar tuner
×
Best way to learn
"Not Coming Back"
Autoscroll
slow
fast
+/-
esc
set tempo
stop
Author
Difficulty
Tuning
  follow
intermediate
D A D G B E
This tab is based on this acoustic performance: https://youtu.be/n0tisUJcHxE?t=30

These are the approximate notes I think Daniel is playing, so watch the video for
strumming patterns and more precise rhythm. 


TUNING: Drop D (DADGBe)


[INTRO]
e|---8---8---10--8-----7---7---10--7----5---5---5---5------|
B|---8---8---8---8-----8---8---8---8----6---6---6---6------|
G|---9---9---9---9-----7---7---7---7----7---7---5---5------|
D|---10--10--10--10----9---9---9---9----7---7---7---7------|
A|--------------------------------------0---0---0---0------|
D|--------------------------------------x---x---0---0------|

e|---------------------------------------------------------|
B|---5---5---5-5-5---5-5-5-5----1---1---1-1-1---1-1-1-1----|
G|---5---5---5-5-5---5-5-5-5----2---2---2-0-2---2-0-2-0----|
D|---5---5---5-5-5---5-5-5-5----0---0---0-0-0---0-0-0-0----| x2
A|---7---7---7-5-7---7-5-7-5----3---3---3-3-3---3-3-3-3----|
D|---5---5---5-5-5---5-5-5-5----3---3---3-3-3---3-3-3-3----|

======================================================================

    Have you lost your mind?   I was miles away
                               I was miles away

    Or did you find it?        They were not around
                               Not a soul for miles

    When you recovered         Couldn't say the word
                               Couldn't speak a sound

    When will you come home?   Not until I'm done
                               Not until my name dries in the dust

[VERSE]
e|---------------------5---5---------0---------------------|
B|---5-----------------6---6---------1-----1---------------|
G|---5-----------------7---5---------0-----2---------------|
D|---5-----------------7---7---------2-----0---------------|
A|---7-----------------0---0---------3-----3---------------|
D|---7-----------------0---0---------------3---------------|

======================================================================

[INTRO]
e|---8---8---10--8-----7---7---10--7----5---5---5---5------|
B|---8---8---8---8-----8---8---8---8----6---6---6---6------|
G|---9---9---9---9-----7---7---7---7----7---7---5---5------|
D|---10--10--10--10----9---9---9---9----7---7---7---7------|
A|--------------------------------------0---0---0---0------|
D|--------------------------------------x---x---0---0------|

======================================================================
     
     So, you're not coming back?
     So, you're never coming back?

[CHORUS]
e|--------------------------------------------------------|
B|---5----------------------1-----------------------------|
G|---5----------------------2-----------------------------|
D|---5----------------------0-----------------------------|
A|---7----------------------3-----------------------------|
D|---5----------------------3-----------------------------|

...easily forgone

e|--------------------5---5---5---5-------5---5---5---5---|
B|-------x------------6---6---6---6-------6---6---6---6---|
G|-------4------------7---7---5---5-------7---7---5---5---|
D|-------0------------7---7---7---7-------7---7---7---7---|
A|-------2------------0---0---0---0-------0---0---0---0---|
D|-------2--------0---0---0---0---0---0---0---0---0---0---|

======================================================================

[INTRO]
e|---8---8---10--8-----7---7---10--7----5---5---5---5------|
B|---8---8---8---8-----8---8---8---8----6---6---6---6------|
G|---9---9---9---9-----7---7---7---7----7---7---5---5------|
D|---10--10--10--10----9---9---9---9----7---7---7---7------|
A|--------------------------------------0---0---0---0------|
D|--------------------------------------x---x---0---0------|

======================================================================

    Find the words to your...  And get it off your mind
                               Get it off your mind

    Raging on past these...    Lazy down the line
                               Still they line the road

    What's to say this is...   Let it lay a while
                               Let it lie in rest, down in the dust

[VERSE]
e|---------------------5---5---------0---------------------|
B|---5-----------------6---6---------1-----1---------------|
G|---5-----------------7---5---------0-----2---------------|
D|---5-----------------7---7---------2-----0---------------|
A|---7-----------------0---0---------3-----3---------------|
D|---7-----------------0---0---------------3---------------|

======================================================================

[INTRO]
e|---8---8---10--8-----7---7---10--7----5---5---5---5------|
B|---8---8---8---8-----8---8---8---8----6---6---6---6------|
G|---9---9---9---9-----7---7---7---7----7---7---5---5------|
D|---10--10--10--10----9---9---9---9----7---7---7---7------|
A|--------------------------------------0---0---0---0------|
D|--------------------------------------x---x---0---0------|

======================================================================

     So, they're not coming back?
     So, they're never coming back?

[CHORUS]
e|--------------------------------------------------------|
B|---5----------------------1-----------------------------|
G|---5----------------------2-----------------------------|
D|---5----------------------0-----------------------------|
A|---7----------------------3-----------------------------|
D|---5----------------------3-----------------------------|

...easily forgone

e|--------------------5---5---5---5-------5---5---5---5---|
B|-------x------------6---6---6---6-------6---6---6---6---|
G|-------4------------7---7---5---5-------7---7---5---5---|
D|-------0------------7---7---7---7-------7---7---7---7---|
A|-------2------------0---0---0---0-------0---0---0---0---|
D|-------2--------0---0---0---0---0---0---0---0---0---0---|

======================================================================

[OUTRO]
e|--------------------------------------------------------|
B|-------15--13--15--13-----------------------------------|
G|-------14--14--14--14-----------------------------------|
D|-------15--15--15--15-----------------------------------|
A|-------0---0---0---0------------------------------------|
D|---0-0--------------------------------------------------|


************************************

| x   Mute note

************************************
Suggest correction
Give kudos to tab author, rate the tab!
1 2 3 4 5
comments
print report bad tab
guest
You may want to rate the tab now too:
select rating
Wanna post a correction for this tab? Suggest correction