Oops, an error
Loading. Please wait.

Why Chords

187 views 3 this week
no commentswrite comment
1 2 3 4 5
3 more votes to show rating
add to favorites
launch autoscroll
font size
0
reset
transpose
0
reset
display chords
guitar tuner
Autoscroll
slow
fast
+/-
esc
set tempo
stop
Help us to improve Ultimate-Guitar.com Take our survey!
×
Author
Difficulty
intermediate
About this tab version
Why --- Daniel Spaleniak --- Album _ Dreamers. Was this info helpful? Yes No
e|--------------------------------------------------------------------|
B|--------------------------------------------------------------------|
G|-----0---2---0--------0---2---0--------0-------0--------0---0-------|
D|---2---2---2---2----2---2---2---2----2---2---2---2----4---4-----4---|
A|-----------------------------------3-------3--------3---------5---5-|
E|-0----------------0-------------------------------------------------|

e|--------------------------------------------------------------------|
B|--------------------------------------------------------------------|
G|-----0---2---0--------0---2---0--------0-------0--------2-------0---|
D|---2---2---2---2----2---2---2---2----2---2---2---2----4---4---4---4-|
A|-----------------------------------3-------3--------5-------5-------|
E|-0----------------0-------------------------------------------------|

chords- Em  C  Am*

Am*
|-0-|
|-3-|
|-0-|
|-4-|
|-5-|
|-x-|

[Verse 1]
C       Am*
Why the stars
              Em
Falling right now?

C           Am*     
Why are you sitting here
        Em
All the time?
C     Am*
Why eventually
           Em
Everything else?
C          Am*
Why do you act
       Em
So broken?

[Verse 2]
C       Am*
Why the sky
        Em
Is oh so bright?
C          Am*
Why do you waste
        Em
Another day?
C       Am*
Why do you
            Em
Just look around?
C          Am*
Why do you give
          Em
And give forever?
Suggest correction
Give kudos to tab author, rate the tab!
1 2 3 4 5
comments
print report bad tab
guest
You may want to rate the tab now too:
select rating
Wanna post a correction for this tab? Suggest correction