Oops, an error
Loading. Please wait.

Time For Leaving tab

1,287 views 1 this week
3 commentsread comments
1 2 3 4 5
1 last vote to show rating
add to favorites
×
Save as Personal and add changes to this tab that will be seen only by you. Learn more ›
×
You can save this tab as Personal to edit and correct it or add notes. All changes will be seen only by you. Learn more »
launch autoscroll
font size
0
reset
how to read this tab
guitar tuner
edit
Autoscroll
slow
fast
+/-
esc
set tempo
stop
time for leaving - Daniel Wesley

first tab so bare with me. Listen to song for timing. ACCENT up stroke on G.
capo 1st fret


opening riff 2X         G
E|----------------------3-----------------------------------||
B|----------------------------------------------------------||
G|----------------------------------------------------------||
D|----------------------------------------------------------||
A|---0--2--3--2---------2-----------------------------------||
E|---------------3------3-----------------------------------||

               G  riff              G  riff
Time for leaving , got to make this right
 Em               C          G   riff
before I start to lose my head,

                        Em      C      G
E|-------------------------------------3----------------------||
B|------------------------------1-----------------------------||
G|------------------------------------------------------------||
D|----------------------2-------2-----------------------------||
A|---0--2--3--2---------2-------3------2----------------------||
E|---------------3---------------------3----------------------||

 Time is fleeting , only got so much .
 I think that I should leave this town.


CHORUS  D-C-G-D-C-G-D-C-Em-D-G

         D          C       G
But it's pulling me apart, how quickly lives can part
D              C         G
Feeling like I shouldn't start.
D               C          Em         D          G   riff
But leaving you behind , is not what I had in mind.

Verse 2
Chorus 2
Verse 3  REPEAT 1st Verse. End on single stroke.
Hope you like . Let me know what you think at billbarrilko@hotmail.com
PEACE ,  " I love you all"  :)

            
            
Suggest correction
Creating personal tab
Creating personal tab
You can edit any tab online and save it as your Personal.

You can edit, replace or remove any tab part or add personal notes – all changes will be seen only by you.

Personal tabs can be accessed anytime from any device, even offline.
Learn more »
Give kudos to tab author, rate the tab!
1 2 3 4 5
comments
print report bad tab
3 comments total.
+1 reply
rugby11 37 Jul 04, 2011 04:13 PM

hey so the chords all seem pretty good.. but in the riff before the chord its not 0 2 3 2. its D-----2-----
A-2-3---3---
E----------3

0 reply
rugby11 37 Jul 04, 2011 04:13 PM

rockin... that sure didnt work..

0 reply
rugby11 37 Jul 04, 2011 04:14 PM

my correction that is..

guest
Wanna post a correction for this tab? Suggest correction