Oops, an error
Loading. Please wait.

Come Around chords

version 1
version 1

Whole song

961 views 9 this week
no commentswrite comment
1 2 3 4 5
1 last vote to show rating
add to favorites
×
Save as Personal and add changes to this tab that will be seen only by you. Learn more ›
×
You can save this tab as Personal to edit and correct it or add notes. All changes will be seen only by you. Learn more »
launch autoscroll
font size
0
reset
transpose
0
reset
simplify chords
display chords
guitar tuner
edit
Autoscroll
slow
fast
+/-
esc
set tempo
stop
Author
Difficulty
Strumming
There is no strumming pattern for this song yet. and get +5 IQ
-------------------------------------------------------------------------------
                             COME AROUND - Daniela Andrade
-------------------------------------------------------------------------------
Tabbed by:ndermawan
Tuning: Standard
No Capo

Reference: https://soundcloud.com/danielasings/come-around-1
           https://www.youtube.com/watch?v=I-fL4KJh_XQ


NEW EP YAY LETS GO GUYZ

===============================================

Chords Used:           | During [Bridge]
------------           |----------------
   F#m   A    D    Bm  | D/A   A  Amaj7  Db7
e|--2----x----x----2---|--5----5----4----4----|
B|--2----2----7----3---|--7----5----5----6----|
G|--2----2----7----4---|--7----6----6----4----|
D|--4----2----7----4---|--7----7----7----6----|
A|--4----0----5----2---|----------------------|
E|--2------------------|----------------------|

Playing power chords are easier, but you're welcome 
to use the standard chord shapes provided above too.


[Intro]
    F#m        A          D              Bm
e|----------------------------------------------------|
B|----------------------------------------------------|
G|----------------------------------------------------|
D|--4--4-4-4-/-7-7-7-7----12--12-12-12-/-9-9-9-9------|
A|--4--4-4-4-/-7-7-7-7----12--12-12-12-/-9-9-9-9------|
E|--2--2-2-2-/-5-5-5-5----10--10-10-10-/-7-7-7-7--X2--|         (0.00 - 0.20)

[Riff Lead Guitar]
e|----12\9-9------------------------------------------|
B|--------------------------5/7--7------10\9--9---X2--|
G|----------------------------------------------------|
D|----------------------------------------------------|
A|----------------------------------------------------|
E|----------------------------------------------------|

[Verse]                                                         (0.21 - 0.27)
F#m                   A
Runnin' out of wind
D                  
You took it out of me
Bm
Fell out of reality


F#m                  A
Countin' all my sins                                            (0.28 - 0.34)
D
You make a felony
Bm
Out of all the good in me


F#m                  A
Is this the game we play?                                       (0.35 - 0.42)
D
Hidin' from each other
             Bm
No one will face the other

F#m                      A
There's nothing left to say                                     (0.43 - 0.49)
D
Holding on to nothing but a fade(?)


[Chorus]                                                        (0.50 - 1.04)
       F#m                             A
'Cause I don't see the light in your heart
    D                          Bm
And when you come around it feels dark
F#m                             A
I don't see the light in your heart
               D
So darlin' I'm leaving
D
You're not gonna drag me - (straight into verse)


[Verse 2]                                                       (1.05 - 1.11)
F#m               A
Shivers down my spine
D                      Bm
Aching into places and I can hardly take it

F#m                        A
You played your cards so right                                  (1.12 - 1.18)
D
Left us to a gamble
         Bm
We both forgot to handle

F#m                   A
And hold each other tight                                       (1.19 - 1.26)
D
Lyin' to each other
            Bm
No one will face the other

F#m                      A
There's nothing left to say                                     (1.27 - 1.33)
D  Bm               Bm               
   Baby I'll be on my way       (D is bassnote only before change to Bm)


[Chorus]                                                        (1.34 - 1.55)
       F#m                             A
'Cause I don't see the light in your heart
    D                          Bm
And when you come around it feels dark
F#m                             A
I don't see the light in your heart
               D
So darlin' I'm leaving
D
You're not gonna drag me
F#m        A  D  Bm
     Down


[Bridge]                                                        (1.56 - 2.27)
D/A        D/A           A  
  Though I really wanna stay
Amaj7
In your arms (I wish I could tell you I'd stay in your arms)
D/A        D/A           A           Amaj7         
   I don't wanna be the one you take down (I swear, the one to take me down)
D/A         D/A             A        Amaj7
   And it's hard to see it all fall apart (I don't wanna see it all fall apart)
D/A                 D/A   
'Cause nobody wants to (nobody wants to)
Db7
   Be alone in the dark...


[Chorus X2]                                                     (2.28 - 3.00)

       F#m                             A
'Cause I don't see the light in your heart
    D                          Bm
And when you come around it feels dark
F#m                             A
I don't see the light in your heart
               D
So darlin' I'm leaving
D
You're not gonna drag me
       F#m                             A
'Cause I don't see the light in your heart
    D                          Bm
And when you come around it feels dark
F#m                             A
I don't see the light in your heart
               D
So darlin' I'm leaving
D
You're not gonna drag me
F#m        A  D  Bm
     Down


[Outro]                                                         (3.01 - end)
F#m  A  D  Bm


================
Additional parts
================

[Bridge piano]

e|------9------9-7-------9------9-7-------9------9-7-------9-7---------------|
B|----10-10--10--------10-10--10--------10-10--10--------10------------------|
G|--11------9--------11------9--------11------9--------11------10~-----------|
D|---------------------------------------------------------------------------|
A|---------------------------------------------------------------------------|
E|---------------------------------------------------------------------------|
[Lower octave bridge piano]
e|---------------------------------------------------------------------------|
B|---------------------------------------------------------------------------|
G|------6-------6-4------6-------6-4------6-------6-4------6-4---------------|
D|--4-7---7---7------4-7---7---7------4-7---7---7------4-7-----3~------------|
A|----------7----------------7----------------7------------------------------|
E|---------------------------------------------------------------------------|
[Bridge lead guit]
e|---------------------------------------------------------------------------|
B|-------------------------------------------------------------6~------------|
G|--------------6-4--------------6-4--------------6-4--4---4-7-6~------------|
D|--4---7---7--------4---7---7--------4---7---7------------------------------|
A|-------------------------------------------------------------4~------------|
E|---------------------------------------------------------------------------|


************************************
| /   slide up
| \   slide down
| h   hammer-on
| p   pull-off
| ~   vibrato
************************************

            
            
Suggest correction
Creating personal tab
Creating personal tab
You can edit any tab online and save it as your Personal.

You can edit, replace or remove any tab part or add personal notes – all changes will be seen only by you.

Personal tabs can be accessed anytime from any device, even offline.
Learn more »
Give kudos to tab author, rate the tab!
1 2 3 4 5
comments
print report bad tab
guest
You may want to rate the tab now too:
select rating
Wanna post a correction for this tab? Suggest correction