Oops, an error
Loading. Please wait.

Shore chords

9,994 views 114 this week
2 commentsread comments
1 2 3 4 5
x 20
add to favorites
×
Save as Personal and add changes to this tab that will be seen only by you. Learn more ›
×
You can save this tab as Personal to edit and correct it or add notes. All changes will be seen only by you. Learn more »
launch autoscroll
font size
0
reset
transpose
0
reset
simplify chords
display chords
guitar tuner
edit
Autoscroll
slow
fast
+/-
esc
set tempo
stop
Strumming
There is no strumming pattern for this song yet. and get +5 IQ
-------------------------------------------------------------------------------
                             SHORE - Daniela Andrade
-------------------------------------------------------------------------------
Tabbed by:ndermawan
Tuning: Standard

Capo 3

Reference: https://www.youtube.com/watch?v=wQw0xnlnJeA
Played with slight delay/echo effect on the electric.

If you can't be bothered picking, strumming chords while
singing along is totally fine.


Chord Shapes Used
-----------------
  Cmaj7 Gmaj7/A  Em/G  Em
e|--x-----------------------|
B|--0-----0------0-----0----|
G|--0-----0------0-----0----|
D|--2-----4------2-----2----|
A|--3-----x------x-----x----|
E|--------5------3-----0----|

Intro/Lead guit
---------------
   Cmaj7                            Gmaj7/A
e|---------------------------------------------------------------------------|
B|----0-----0---------0-----0---------0-----0---------0-----0----------------|
G|------0-----0---0-----0-----0---0-----0-----0---0-----0-----0---0----------|
D|--------2-----2---------2-----2---------4-----4---------4-----4------------|
A|--3---------------3--------------------------------------------------------|
E|----------------------------------5---------------5------------------------|
   Em/G                             Em
e|---------------------------------------------------------------------------|
B|----0-----0---------0-----0---------0-----0---------0-----0----------------|
G|------0-----0---0-----0-----0---0-----0-----0---0-----0-----0---0----------|
D|--------2-----2---------2-----2---------2-----2---------2-----2------------|
A|---------------------------------------------------------------------------|
E|--3---------------3---------------0---------------0------------------------|

    T M I T M I T I T M I T M I T I and so on 

Picking pattern key
T = Thumb
I = Index finger
M = Middle finger

Basically thumb switches between the lower E string & D string,
whilst your index and middle are picking the 'open' B & G strings.

Slide up when changing from Cmaj7 to Gmaj7/A, and slide back down
from Gmaj7/A to Em/G.

=============================================================================

[Intro]
Cmaj7   Gmaj7/A   Em/G    Em x2

[Verse 1]
Cmaj7
Stop being mysterious
Gmaj7/A
Tell me what you want
            Em/G
Oh, give me something
Em
Something I can work
            Cmaj7
Oh, are you feeling this?
Gmaj7/A                        Em/G       Em
Is it just the way the dusk is falling?


[Chorus]
             Cmaj7              Gmaj7/A
Cause I want something real
                 Em/G           Em
These days, it's hard to feel

             Cmaj7         Gmaj7/A
And when you call, I cannonball, 
            Em/G               Em
dive in too deep, oh can't you see 

            Cmaj7              Gmaj7/A
that I want something more
                Em/G           Em
Than words that hit the wall?

            Cmaj7             Gmaj7/A          Em/G       Em
I think I'm ready, so rock me steady to your shore

Cmaj7
Na na-na-na-na na na
Gmaj7/A
Na na-na-na-na na na
Em/G
Na na-na-na-na na na
Em
Na na-na naa


[Verse 2]
                Cmaj7
Takes time, but I'm digging it
Gmaj7/A
Rolling with your curve
            Em/G
It's all or nothing
Em
Could it take some work?
                 Cmaj7
You're where the rhythm is
Gmaj7/A                      Em/G     Em
Slowing down the waves of my heart


[Chorus]
             Cmaj7              Gmaj7/A
Cause I want something real
                 Em/G           Em
These days, it's hard to feel

             Cmaj7         Gmaj7/A
And when you call, I cannonball, 
            Em/G               Em
dive in too deep, oh can't you see now

            Cmaj7              Gmaj7/A
that I want something more
                Em/G           Em
Than words that hit the wall?

            Cmaj7             Gmaj7/A          Em/G       Em
I think I'm ready, so rock me steady to your shore        mmm


[Bridge] (single strum only)
              Cmaj7 
Cause I can't stop when you turn, turn a frown
                      Em/G
And I think about the chance when you're close, say it now
                    Cmaj7
Baby, maybe this is it, if you want, let's find out
                          Em
Baby, don't you say it's over



[Chorus]
             Cmaj7              Gmaj7/A
Cause I want something real
                 Em/G           Em
These days, it's hard to feel

             Cmaj7         Gmaj7/A
And when you call, I cannonball, 
            Em/G               Em
dive in too deep, oh can't you see now

            Cmaj7              Gmaj7/A
that I want something more
                Em/G           Em
Than words that hit the wall?

            Cmaj7             Gmaj7/A          Em/G       Em
I think I'm ready, so rock me steady to your shore

Cmaj7
Na na-na-na-na na na
Gmaj7/A
Na na-na-na-na na na
Em/G
Na na-na-na-na na na
Em
Na na-na naa

Cmaj7
Na na-na-na-na na na
Gmaj7/A
Na na-na-na-na na na
Em/G       Em
  Daa a    Aa a ah

Em to end

            
            
Suggest correction
Creating personal tab
Creating personal tab
You can edit any tab online and save it as your Personal.

You can edit, replace or remove any tab part or add personal notes – all changes will be seen only by you.

Personal tabs can be accessed anytime from any device, even offline.
Learn more »
comments
print report bad tab
2 comments total.
0 reply
SuperSkull999 10 Mar 31, 2017 11:16 AM

👍

0 reply
ndermawan 1,232 Apr 09, 2017 08:12 PM

Thanks man :)

guest
You may want to rate the tab now too:
select rating
Wanna post a correction for this tab? Suggest correction