Oops, an error
Loading. Please wait.

Shore Live tab

1,156 views 12 this week
4 commentsread comments
1 2 3 4 5
x 3
add to favorites
×
Save as Personal and add changes to this tab that will be seen only by you. Learn more ›
×
You can save this tab as Personal to edit and correct it or add notes. All changes will be seen only by you. Learn more »
launch autoscroll
font size
0
reset
how to read this tab
guitar tuner
edit
Autoscroll
slow
fast
+/-
esc
set tempo
stop
About this tab version
Live version (different from album version) that she uploaded on her youtube a while ago. Was this info helpful? Yes No
-------------------------------------------------------------------------------
                             SHORE (LIVE) - Daniela Andrade
-------------------------------------------------------------------------------
Tabbed by:ndermawan
Tuning: Standard
Capo 3

Reference: https://www.youtube.com/watch?v=aG4ozL417VQ

Lovely acoustic arrangement as always, 
but not actually that hard to play once you can memorise it! :)

If you need a reference of me playing/picking just hit me up.

===============================================================================

Chord Shapes Used
-----------------
    Cmaj7  Gmaj7/A   Gmaj7   Gmaj7/E
e|----------------------------------|
B|----5-----------------------------|
G|----4-------0--------0-------0----|
D|----5-------4--------4-------4----|
A|----3-------3--------2-------2----|
E|------------5--------3-------0----|


Intro/Lead guit [0.03 - 0.15]
-----------------------------
    Cmaj7       Gmaj7/A         Gmaj7       Gmaj7/E
e|-------------------------------------------------------|
B|--------5----------------------------------------------|
G|------4-------------0---------------0-----------0------|
D|----5-------------4---4-----------4---4-------4---4-~--|
A|--3-------------3-------3-------2-------2---2----------|
E|--------------5---------------3-----------0------------|


Verse picking                                                                   
-------------
The x's signify where you should be keeping the chord shape with your left hand, 
but strike with your nails on the downward strum to make a percussive/slap sound.

    Cmaj7                       Gmaj7/A                 Gmaj7                  Gmaj7/E
e|--------0---0-------0---0--|-----------------------|-----------------------|-------------------|
B|------x-5---5-----x-5---5--|-----------------------|-----------------------|-------------------|
G|------x-4---4-----x-4---4--|--------0---------0----|--------0---------0----|--------0----------|
D|------x-5---5-----x-5---5--|------x---4-----x---4--|------x---4-----x---4--|------x---4--------|
A|--3-------3---3-------3----|------x---------x------|------x---------x------|------x------------|
E|---------------------------|--5------5--5------5---|--3------3--3------3---|--0------0--0~-----|
    T   D U T U T   D U T U     T   D RTM T   D RTM     T   D RTM T   D RTM     T   D RTM T


Picking pattern key
-------------------
T = Thumb
I = Index finger
M = Middle finger
R = Ring finger
U = Up strum/Fingerpick strings
D = Down strum


Chorus Picking
--------------
"Cause I want                    
      something real"                "These days, it's hard to feel"
    Cmaj7                                               Gmaj7/A
e|--------0---0-------0---0-|-------0---0-------0---0-|---------------------|------------------------|
B|------x-5---5-----x-5---5-|-----x-5---5-----x-5---5-|---------------------|------------------------|
G|------x-4---4-----x-4---4-|-----x-4---4-----x-4---4-|-------0---------0---|-------0---------0------|
D|------x-5---5-----x-5---5-|-----x-5---5-----x-5---5-|-----x---4-----x---4-|-----x---4-----x---4----|
A|--3-------3---3-------3---|-3-------3---3-------3---|-----x---------x-----|-----x---------x--------|
E|--------------------------|-------------------------|-5------5--5------5--|-5------5--5------5--5--|

"And when you  
    call,             I cannonball       dive in  too  deep, oh    can't   you see now"
    Cmaj7                     Gmaj7/A                Gmaj7                 Gmaj7/E
e|--------0---0-------0---0-|----------------------|----------------------|------------------|
B|------x-5---5-----x-5---5-|----------------------|----------------------|------------------|
G|------x-4---4-----x-4---4-|-------0---------0----|-------0---------0----|-------0----------|
D|------x-5---5-----x-5---5-|-----x---4-----x---4--|-----x---4-----x---4--|-----x---4--------|
A|--3-------3---3-------3---|-----x---------x------|-----x---------x------|-----x------------|
E|--------------------------|-5------5--5------5---|-3------3--3------3---|-0------0--0~-----|


Bridge (single strum only)
--------------------------
              Cmaj7 
Cause I can't stop when you turn, turn a frown
                      Gmaj7/A 
And I think about the chance when you're close, say it now
                    Cmaj7
Baby, maybe this is it, if you want, let's find out
                         Gmaj7/A 
Baby, don't you say it's over


Outro - same as verse picking essentially
------------------------------------------

    Cmaj7                     Gmaj7/A                Gmaj7                  Gmaj7/E
e|--------0---0-------0---0-|----------------------|----------------------|--------------------|
B|------x-5---5-----x-5---5-|----------------------|----------------------|--------------------|
G|------x-4---4-----x-4---4-|-------0---------0----|-------0---------0----|-------0---------0--|
D|------x-5---5-----x-5---5-|-----x---4-----x---4--|-----x---4-----x---4--|-----x---4-----x----|
A|--3-------3---3-------3---|-----x---------x------|-----x---------x------|-----x---------x----|
E|--------------------------|-5------5--5------5---|-3------3--3------3---|-0------0--0--------|
    Na na-na-na-na na na      Na na-na-na-na na na   Na na-na-na-na na na   Na na-na naa

    Cmaj7                     Gmaj7/A                Gmaj7                
e|--------0---0-------0---0-|----------------------|---------------------------|
B|------x-5---5-----x-5---5-|----------------------|---------------------------|
G|------x-4---4-----x-4---4-|-------0---------0----|-------0---------0---------|
D|------x-5---5-----x-5---5-|-----x---4-----x---4--|-----x---4-----x---4-------|
A|--3-------3---3-------3---|-----x---------x------|-----x---------x-----------|
E|--------------------------|-5------5--5------5---|-3------3--3------3----0~--|
Haa Na na-na-na-na na na      Na na-na-na-na na na    Naa   ha   ha-aa     ah


=============================================================================

Playing order + lyrics + video timestamps

[Intro]                                                         0.02 - 0.14

[Verse 1]                                                       0.20 - 0.32
Stop being mysterious
Tell me what you want
Oh, give me something
Something I can work
Oh, are you feeling this?                                       0.33 - 0.46
Is it just the way the dusk is falling?

[Chorus]                                                        0.47 - 1.11
Cause I want something real
These days, it's hard to feel
And when you call, I cannonball, dive in too deep
Oh, can't you see now
That I want something more                                      1.12 - 1.37
Than words that hit the wall?
I think I'm ready, so rock me steady to your shore

[Verse 2]                                                       1.38 - 2.04
Takes time, but I'm digging it
Rolling with your curve
It's all or nothing
Could it take some work?
You're where the rhythm is
Slowing down the waves of my heart

[Chorus]                                                        2.05 - 2.30
Cause I want something real
These days, it's hard to feel
And when you call, I cannonball, dive in too deep
Oh, can't you see now
That I want something more                                      2.31 - 2.55
Than words that hit the wall?
I think I'm ready, so rock me steady to your sho-o-o-re

[Bridge]                                                        2.56 - 3.23
Cause I can't stop when you turn, turn a frown
And I think about the chance when you're close, say it now
Baby, maybe this is it, if you want, let's find out
Baby, don't you say it's over

[Chorus]                                                        3.24 - 3.50
Cause I want something real
These days, it's hard to feel
And when you call, I cannonball, dive in too deep
Oh, can't you see no 
That I want something more                                      3.51 - 4.17
Than words that hit the wall?
I think I'm ready, so rock me steady to your shore

[Outro]                                                         4.18 - 4.30
Na na na na na na na
Na na na na na na na
Na na na na na na na
Na na na naa

Na na na na na na na                                            4.31 - 4.43
Na na na na na na na
Naa ha ha-aa ah

            
            
Suggest correction
Creating personal tab
Creating personal tab
You can edit any tab online and save it as your Personal.

You can edit, replace or remove any tab part or add personal notes – all changes will be seen only by you.

Personal tabs can be accessed anytime from any device, even offline.
Learn more »
Give kudos to tab author, rate the tab!
1 2 3 4 5
comments
print report bad tab
4 comments total. Showing first comments.
0 reply
enochc17 10 Mar 17, 2017 11:16 AM

love this.
thanks.
keep uploading!

could I request for your version of dark passenger?

that would be lovely.

+1 reply
ahiap 159 Apr 01, 2017 09:14 PM

me too..........

+1 reply
ndermawan 1,232 Apr 04, 2017 12:02 AM

Sure thing guys :)

Sorry for the absence, started my master's programme so haven't had time to tab anything out recently.

I'll make this my next project then. Do you have a specific video that you want me to reference from?

guest
You may want to rate the tab now too:
select rating
Wanna post a correction for this tab? Suggest correction