Oops, an error
Loading. Please wait.

Sound Chords

319 views 21 this week
no commentswrite comment
1 2 3 4 5
2 more votes to show rating
add to favorites
launch autoscroll
font size
0
reset
transpose
0
reset
simplify chords
display chords
guitar tuner
Autoscroll
slow
fast
+/-
esc
set tempo
stop
Help us to improve Ultimate-Guitar.com Take our survey!
×
Author
Difficulty
intermediate
-------------------------------------------------------------------------------
                             SOUND - Daniela Andrade
-------------------------------------------------------------------------------
Tabbed by: ndermawan
Tuning: Standard

Reference: https://www.youtube.com/watch?v=xqf2DJgucsU

She's come so far :') 
Diggin' her new stuff as much as her old songs!
These new videos are really a treat sonically and visually.

I've provided a BASS tab for the chorus in the appendix section at the bottom.
Because that beat drop + music video is fully sik.
Since it is in drop D tuning, technically you can also just use drop D tuning
for the whole song.

Chords Used - If the Eb chord is too hard, playing a Cm is acceptable also.
===============================================================================

Intro Chords:                   | Verse/Chorus:     |Drop D tuning
                                |                   |
    Gm   F or F*   Eb or Ebmaj7 | Gm   F   Cm   Eb  |  Gm  F   Cm   Eb
e|--6----5----5----3------------|-------------------|------------------|
B|--8----6----6----3-----8------|-------------------|------------------|
G|--7----3----7----0-----7------|-------------------|------------------|
D|--5----3---------1-----5------|--5---3---10---8---|--5---3---10---1--|
A|------------8----------6------|--5---3---10---8---|--5---3---10---1--|
E|------------------------------|--3---1---8----6---|--5---3---10---1--|

================================================================================


[Intro]                                                                 0.14 - 0.28
   Gm         F          Eb            Gm        F          Eb
e|-----6---------10---------8-----|-------6---------10---------8----|
B|-------8----------8---------8---|---------8----------8---------8--|
G|-(3)----------------------------|---(3)---------------------------|
D|--5--------(7)--------(5)-------|----5--------(7)--------(5)------|
A|------------8----------6--------|--------------8----------6-------|
E|--------------------------------|---------------------------------|


[Verse 1]                                                               0.29 - 0.56
Gm           F                 Cm             
Sounds in my head, where'd they go now?
Gm           F          Cm  
Words in my bed, they don't quiet down
            Gm          F      Cm
I know it's nothing to worry myself about
              Gm        F
But I haven't slept,      

I haven't slept


[Chorus]                                                                0.57 - 1.26
               Gm                       F
Except for the beat when it goes and my eyes finally close
Cm                Eb
Steady the pound, move to the sound
          Gm                        F
Cause the music, it knows what your heart won't let go
Cm                Eb                   Gm       F
Steady the pound, move to the sound of love
             Cm   Eb             Gm      F
The sound of love, the sound of love
    F    Cm
The sound, the sound


[Verse 2]                                                               1.27 - 1.54
Gm         F            Cm
Courage it took, but I'm here now
Gm         F              Cm
Wiping the dirt, sweat the fever out
            Gm         F       Cm
I know it's nothing to worry myself about
            Gm         F         Cm
Hands on my chest,          doing my best


[Chorus] Chorus fades into bridge (no chords played) but feel free      1.55 - 2.17
         to keep playing Gm, F, Cm until bridge transition.
               Gm                       F
So feel it the beat when it goes and my eyes finally close
Cm                Eb
Steady the pound, move to the sound
          Gm                        F
Cause the music, it knows what your heart won't let go
Cm                Eb                   Gm       F
Steady the pound, move to the sound of love
             Cm                
The sound of love, the sound (of love)....                              2.18 - 2.24 

The sound....The sound


[Instrumental Break]                                                    2.25 - 2.54

Gm
   Hoo ooh (oh)
F
   Hoo ooh (oh)
Cm         Eb
   Hoo woa aa-ah  X4


Eb     F  
   Aa oo oooh                                                           2.55 - 2.57


[Chorus]                                                                2.58 - 3.25
               Gm                       F
So feel it the beat when it goes and my eyes finally close
Cm                Eb
Steady the pound, move to the sound
          Gm                        F
Cause the music, it knows what your heart won't let go
Cm                Eb                   Gm       F
Steady the pound, move to the sound of love
             Cm   Eb             Gm      F
The sound of love, the sound of love
    F    Cm
The sound, the sound

- Off-beat interlude  -

               Gm                       F
So feel it the beat when it goes and my eyes finally close              3.29 - 4.00
Cm                Eb
Steady the pound, move to the sound
          Gm                        F
Cause the music, it knows what your heart won't let go
Cm                Eb                   Gm       F
Steady the pound, move to the sound of love
             Cm   Eb             Gm      F
The sound of love, the sound of love
    F    Cm
The sound, the sound



Note: Weird gap/pause/offbeat thing in between the two last choruses
      that I don't really know how to transcribe in tab.

====================================================================
APPENDIX
====================================================================
Chorus Bass:
Tuning Drop D
e|-----------------------|-----------------------|
B|-----------------------|-----------------------|
G|-----------------------|-----------------------|
D|-----------------------|--------------------1--|
A|-------------------(5)-|--3---3-3p1-3----------|
E|--5---5-8p5-8-3---3-0--|--------------1---1----|


First time at 0.58, timing is a little bit awkward

Chorus Lead:                       (palm mute)
e|-----6---------10---------8-------11-11-10-----|
B|----8---8----------8---------8-----------------|
G|-----------------------------------------------|
D|-----------------------------------------------|
A|-----------------------------------------------|
E|-----------------------------------------------|

************************************

| /   slide up
| \   slide down
| h   hammer-on
| p   pull-off
| ~   vibrato

************************************
Suggest correction
Give kudos to tab author, rate the tab!
1 2 3 4 5
comments
print report bad tab
guest
You may want to rate the tab now too:
select rating
Wanna post a correction for this tab? Suggest correction