Oops, an error
Loading. Please wait.

Come Va Voce Tab

611 views 1 this week
no commentswrite comment
1 2 3 4 5
3 more votes to show rating
add to favorites
launch autoscroll
font size
0
reset
how to read this tab
guitar tuner
Autoscroll
slow
fast
+/-
esc
set tempo
stop
Help us to improve Ultimate-Guitar.com Take our survey!
×
Author
Difficulty
Tuning
novice
B E A D F# B
Daniela Mercury
Come Vai Voce

Tabbed by: CO (calopi@hotmail.com_
(use cappo in second fret)

----Intro---

||------------------|------------------|
||--2---3---5---3p2-|--2---3---5---3p2-|
||--2-----------2---|--2-----------2---|
||--2-----------2---|--2-----------2---|
||------------------|------------------|
||--5-5---5---5-----|--4-4---4---4-----|

||----------2-------|--2--2-5-6----9---|
||--2---3-----2-5-3-|--3--3---5----8---|
||--2---------------|--4--4---6----9---|
||--2---------------|--4--4---5----8---|
||------------------|------------------|
||--2-2---2---------|------------------|

(exact tabbing is ... )

      A        G#m                         F#m
Como vai você,       eu preciso saber da sua vida
Em7                            A7       D
Peça  a alguém pra me contar sobre seu dia
  Dm           E4           E    E7
Anoiteceu e eu preciso só saber


      A       G#m                            F#m
Como vai você,       que já modificou a minha vida
Em7                A7      D
Razão da minha paz já esquecida
Dm                      E4          E   E7
Nem sei se gosto mais de mim ou de você

 Amaj7                                F#m
Vem que a sede de te amar me faz melhor
                           D
Eu quero amanhecer ao seu redor
         Bm           E     E7
Preciso tanto me fazer feliz
 A                            F#m
Vem que o tempo pode afastar nós dois
                            D
Não deixe tanta vida pra depois
         Bm        E7                A
Eu só preciso saber........como vai você

Bm  E7                 A

website: http://www.danielamercury.art.br/ 
Suggest correction
Give kudos to tab author, rate the tab!
1 2 3 4 5
comments
print report bad tab
guest
You may want to rate the tab now too:
select rating
Wanna post a correction for this tab? Suggest correction