Oops, an error
Loading. Please wait.

Bendito Jesus Chords

version 1
version 1

Whole song

Interactive

4 views 4 this week
no commentswrite comment
1 2 3 4 5
3 more votes to show rating
add to favorites
launch autoscroll
font size
0
reset
transpose
0
reset
simplify chords
display chords
guitar tuner
Autoscroll
slow
fast
+/-
esc
set tempo
stop
Help us to improve Ultimate-Guitar.com Take our survey!
×
Author
[Intro]
e|-.-11-11-11---------11-9-9-9-9---------------------|
B|------------12----------------12-11-7-12-12-12-12--|
G|---------------11----------------------------------|
D|---------------------------------------------------|
A|---------------------------------------------------|
E|---------------------------------------------------|

e|-.-9-11---------12--12--11------|
B|-------12-9------12------12-----|
G|---------------11---------------|
D|--------------------------------|
A|--------------------------------|
E|--------------------------------|


B               F#                 G#m
Por tí es mi clamor, y sin ningun temor
                 F#      E        B
En tí puedo confiar, Bendito Jesus
                F#                G#m
Hoy puedo escuchar, tú voz de sanidad
                F#        E       B   F#
Restaurando mi ser, Bendito Jesús

B             F#             G#/G G#m
Mi deseo eres tú, mi momento de amor
        F#        E              B
La alegria de vivir, Bendito Jesús.
                   F#                 G#/G G#m
Eres mi fuente de amor, eres aire, y eres sol
      F#          E              B
El latir del corazón, Bendito Jesús.
         F#           E
Bendito amor de mi Señor.

B              F#               G#m
Tú gracia y favor, conmigo puedo ver
                 F#      E         B
Llenando hoy mi ser, Bendito Jesús.
                F#                   G#m
Y hoy mi voluntad, se rinde a tu verdad
                 F#      E         B
Tú amor y tu bondad, Bendito Jesús


B             F#              G#/G G#m
Mi deseo eres tú, mi momento de amor
        F#         E              B
La alegria de vivir, Bendito Jesús.
                   F#                G#/G G#m
Eres mi fuente de amor, eres aire,y eres sol
        F#          E              G#m
El latir del corazón, Bendito Jesús.
         F#           E    G#m
Bendito amor de mi Señor.
G#m        F#           E
Bendito amor de mi Señor.
Suggest correction
Give kudos to tab author, rate the tab!
1 2 3 4 5
comments
print report bad tab
guest
You may want to rate the tab now too:
select rating
Wanna post a correction for this tab? Suggest correction