Oops, an error
Loading. Please wait.

Code Of The Road chords

version 1
version 1

Whole song

  • Code of the Road with lyrics and notes.

Interactive

73 views 1 this week
no commentswrite comment
1 2 3 4 5
3 more votes to show rating
add to favorites
×
Save as Personal and add changes to this tab that will be seen only by you. Learn more ›
×
You can save this tab as Personal to edit and correct it or add notes. All changes will be seen only by you. Learn more »
launch autoscroll
font size
0
reset
transpose
0
reset
display chords
guitar tuner
edit
Autoscroll
slow
fast
+/-
esc
set tempo
stop
About this tab version
Code of the Road with lyrics and notes. Was this info helpful? Yes No
Strumming Is this strumming pattern correct? Yes No
whole song 135 bpm
1
&
2
&
3
&
4
&
Listen
Better play it with Power-Chords, like DANKO JONES does it live ;) hf (strummmingpitch could be faster/slower)


[Intro]
E|---5-5-5-4-4-4-4-4-4-4-4-4-4-4-4-4--5-5-5-4-4-4-----------------------|
B|------------------------------------------------0-0-0-0-0-0-0-0-0-0---|
G|----------------------------------------------------------------------|
D|----------------------------------------------------------------------|
A|----------------------------------------------------------------------|
E|----------------------------------------------------------------------|

[Verse]
 C#m
 I live by the code of the road
A             B
 Every single night of my life
C#m
 Nobody knows a single place I go
A              B
 City by city, night after night

 C#m
 Been a long time on this lonely road yeeah
A                            B
 Nothing comes easy but it's worth the fight
C#m
 If you've seen it once, I've seen it twice before yeeah
A                  B
 Little by little, mile after mile

[Chorus]
E          F#m               C#m
 You've been waiting for this all of your life yeeah
A                   B
 The time is now to go
E       F#m        C#m
 No hesitation, no backing down now
A                  B
 So just take it away

[Verse]
C#m
 I live by the code of the road
A             B
 Every single night of my life
C#m
 People all around you, but you're all alone
A              B
 City by city, night after night

C#m
 It's about time I take it nice and slow yeeah
A                           B
 Nothing comes easy but it's worth the fight
C#m
 I say it all the time but then I start to roam yeeah
A                  B
 Little by little, mile after mile

[Chorus]
E           F#m              C#m
 You've been waiting for this all of your life yeeah
A                   B
 The time is now to go
E      F#m         C#m
 No hesitation, no backing down now
A                  B
 So just take it away

[Intro]
E|---5-5-5-4-4-4-4-4-4-4-4-4-4-4-4-4--5-5-5-4-4-4-----------------------|
B|------------------------------------------------0-0-0-0-0-0-0-0-0-0---|
G|----------------------------------------------------------------------|
D|----------------------------------------------------------------------|
A|----------------------------------------------------------------------|
E|----------------------------------------------------------------------|

[Verse]
C#m
I live by the code of the road
A             B
 Every single night of my life
C#m
 Nobody knows a single place I go
A              B
 City by city, night after night

C#m
 Been a long time on this lonely road yeeah
A                           B
 Nothing comes easy but it's worth the fight
C#m
 If you've seen it once, I've seen it twice before yeeah
A                  B
 Little by little, mile after mile

            
            
Suggest correction
Creating personal tab
Creating personal tab
You can edit any tab online and save it as your Personal.

You can edit, replace or remove any tab part or add personal notes – all changes will be seen only by you.

Personal tabs can be accessed anytime from any device, even offline.
Learn more »
Give kudos to tab author, rate the tab!
1 2 3 4 5
comments
print report bad tab
guest
You may want to rate the tab now too:
select rating
Wanna post a correction for this tab? Suggest correction