Oops, an error
Loading. Please wait.

Full Of Regret bass

version 1
version 1

Whole song

Interactive

1,320 views 3 this week
1 commentread comment
1 2 3 4 5
2 more votes to show rating
add to favorites
×
Save as Personal and add changes to this tab that will be seen only by you. Learn more ›
×
You can save this tab as Personal to edit and correct it or add notes. All changes will be seen only by you. Learn more »
launch autoscroll
font size
0
reset
guitar tuner
edit
Autoscroll
slow
fast
+/-
esc
set tempo
stop
-------------------------------------------------------------------------------
                             FULL OF REGRET - Danko Jones
                        From the album - Below the Belt (2010)
-------------------------------------------------------------------------------

Tabbed by: Diabolusinmusic (Talkbass handle)
E-mail: Don't e-mail me, just update the tab and credit me where due 

The timing and structure are not 100% accurate, this is an outline, you need
to listen to where the parts go and proper timing.  I've included some of the
fills, I am sure I missed some.  The times are all approximate.  Sorry about
the break spacing, I just wanted to make it as clear as possible.


Tuning: Standard

Intro                                                        Verse    Cont'd
G|------------------------------------------6-4--------------------------4---|
D|----------------------------------------4-----2--------------------------2-|
A|--2-2--4---2-2--4---2-2--0---2-2--4---7----------2-2--4---2-2-4--2-2-4-----|
E|---------------------------------------------------------------------------|


G|-4--------------------/6-4---------------/6-4------------------------------|
D|---2-----------------------6-2----------------6-2-----------4-2------------|
A|------2-2--0---2-2-4-------------2-2--4-------------2-2--4-----------------|
E|---------------------------------------------------------------------------|


Verse 2
G|------------------4-------------------------/6-4---------------------------|
D|--------------------2-4--------------------------6-------------------------|
A|-2-2--4---2-2--4----------2-2-0-----2-2--4---------7--9-9------------------|
E|---------------------------------2--------------------------7-9\-----------|


Chorus

G|---------------------------------------------------------------------------|
D|--Regrets I've-------------------------------------------------------------|
A|----------------0-0-0-0------------4-4-4-4-----------0-0-0---2-2--4--------|
E|-------------------------2-2-2-2------------0-0-0-0------------------------|

Break
G|-------------------------------9-9-9--6----|-------------------------------|
D|-------------------------------------------|-------------------------------|
A|---------7-7--9-9-----7-7------------------|-------------------------------|
E|-7-7--9------------9--------9------------0-|-------------------------------|

Break Cont'd
G|--------9--------------------9---------|-----------------------------------|
D|---9-11------9-9-11-----9-11---11-11---|-----------------------------------|
A|---------------------------------------|-----------------------------------|
E|-9---------9---------9---------------0-|-----------------------------------|

Break Cont'd

G|--------11------------------------9---------|------------------------------|
D|---9-11--------11--11-9------9-11---11-11---|------------------------------|
A|--------------------------------------------|------------------------------|
E|-9-----------9------------9---------------0-|------------------------------|

Break Cont'd                             Talking part
G|-------------------9-----------------|-------------------------------------|
D|----9--9-11-----11-------11--11-9----|-------------------------------------|
A|-------------------------------------|--------4----------------------------|
E|-9-----------9--------9------------0-|-5--2-------0-2-3-4-5----------------|

1:26Fill/vers 1:41 end vers  1:50 chorus             1:57 & 2:07 chorus
G|-----------|-/6-4---------|--------4------4-----4|-------------------------|
D|-----2-4-2-|------6-------|----------2------2----|-----------4-----2-------|
A|-2-4-------|--------7-9---|-4-4-4------4------4--|4-4-4--4-2---4-----4--2-4|
E|-----------|------------7-|----------------------|---------------4-----4---|


| /  slide up
| \  slide down
| h  hammer-on
| p  pull-off
| ~  vibrato
| +  harmonic
| x  Mute note
===============================================================================

            
            
Suggest correction
Creating personal tab
Creating personal tab
You can edit any tab online and save it as your Personal.

You can edit, replace or remove any tab part or add personal notes – all changes will be seen only by you.

Personal tabs can be accessed anytime from any device, even offline.
Learn more »
Give kudos to tab author, rate the tab!
1 2 3 4 5
comments
print report bad tab
1 comment total.
0 reply
henrihell 510 Sep 10, 2014 04:10 AM

It's all correct but quite confusing to read.

guest
You may want to rate the tab now too:
select rating
Wanna post a correction for this tab? Suggest correction