Oops, an error
Loading. Please wait.

Lover Call Bass Tab

5,087 views 1 this week
2 commentsread comments
1 2 3 4 5
x 9
add to favorites
launch autoscroll
font size
0
reset
guitar tuner
×
Best way to learn
"Lover Call"
Autoscroll
slow
fast
+/-
esc
set tempo
stop
Danko Jones Lover Call Bass Tab

artist: Danko Jones
song: Lovercall
tabbed by: Matt (Mike_0xbig)

intro + verse

G|------------------|
D|---5--------------|
A|-----5-4----------|
E|-4-------4-2-4-4--|

G|------------------|
D|---5--------------|
A|-----5-4----------|
E|-4-------4-2-4----|


chorus

G|------------------|
D|------------------|
A|-3333---000-------|
E|------3-----------|

G|------------------|
D|------------------|
A|-3333---00--------|
E|------3-----------|


during guitar solo

G|----------------------|
D|---5------------------|
A|-----5-4--------------|
E|-4-------4-2-4-4--444-|

G|----------------------|
D|---5------------------|
A|-----5-4--------------|
E|-4-------4-2-4---4----|


verse
chorus
guitar solo

end

G|-----------------------|
D|---5-------------------|
A|-----5-4---------------|
E|-4-------4-2-4---------|


Tabs-lyrics.com
Suggest correction
comments
print report bad tab
2 comments total.
0 reply
MalinJK 10 Nov 10, 2006 06:02 AM

well...this one is EXACTLY identical with my version and that includes the words written inbetween the notes..the only thing different is that it's your nick written after "tabbed by:" in this post and it was added over a year later then mine according to the dates... SO is there a simple explanation to this? /Malin

+1 reply
BoBatron6000 10 Sep 14, 2009 07:31 PM

Thats all well and good except it's totally wrong.

|-----------------------|
|------5-4--------------|
|----------4------------|
|----4-------4-2-2/4-4-4|

|---------------------|
|------5-4------------|
|----------4----------|
|----4-------4-2-2/4-4|

guest
You may want to rate the tab now too:
select rating
Wanna post a correction for this tab? Suggest correction