Oops, an error
Loading. Please wait.

The Cross Tab

144 views 1 this week
no commentswrite comment
1 2 3 4 5
3 more votes to show rating
add to favorites
launch autoscroll
font size
0
reset
how to read this tab
guitar tuner
Autoscroll
slow
fast
+/-
esc
set tempo
stop
Help us to improve Ultimate-Guitar.com Take our survey!
×
Difficulty
novice
This is my first tab and its one of my favorite Danko Jones songs.
I couldnt come up with the solo but i guess its simple.

Verse:

e|----------------------------|
B|----------------------------|
G|----------------------------|
D|----9999999999999999--------|
A|----9999999999999999--------|
E|----7777777777777777--------|
                                           x4

e|---------------------------|
B|---------------------------|
G|--------7---7---7---7---7--|
D|------5-7-5-7-5-7-5-7-5-7--|
A|---------------------------|
E|---------------------------|



Bridge:
e|-----------------------------|
B|-----------------------------|
G|------------------4444-------|
D|-------444444442224444-------|             x4
A|-------444444442222222-------|
E|-------22222222000-----------|

Ref:
e|-------------------------|
B|-------------------------|
G|-------------7-----------|
D|------ 7-9-7-7-7---------|                 x4
A|-------7-9-7-5-7---------|
E|-------5-7-5---5---------|
  NAIL YOU TO THE CROSS...


And then it just goes on and on :)
Sorry about the solo but im not good at those stuff although thisone probably is pretty 
easy. :) by: Marcus Lundin
Suggest correction
Give kudos to tab author, rate the tab!
1 2 3 4 5
comments
print report bad tab
guest
You may want to rate the tab now too:
select rating
Wanna post a correction for this tab? Suggest correction