Oops, an error
Loading. Please wait.

You Are My Woman tab

229 views 12 this week
no commentswrite comment
1 2 3 4 5
3 more votes to show rating
add to favorites
×
Save as Personal and add changes to this tab that will be seen only by you. Learn more ›
×
You can save this tab as Personal to edit and correct it or add notes. All changes will be seen only by you. Learn more »
launch autoscroll
font size
0
reset
how to read this tab
guitar tuner
edit
Autoscroll
slow
fast
+/-
esc
set tempo
stop
About this tab version
I don't usually make tabs but there wasn't one for this online. So here you go. Was this info helpful? Yes No
-----------------------------------------------------------
You Are My Woman - Danko Jones
-----------------------------------------------------------
Tabbed by: Chris James
Email: Thisisarse@Gmail.com

Tuning: Drop D (DADGBe)
Capo 1st fret (Not Neccessary but it just makes playing it easier)

[Verse]
e|-----------------------------------------------------------------|
B|-----------------------------------------------------------------|
G|-----------------------------------------------------------------|
D|-7-7--------4-4--2-2--0-0----------------------------------------|
A|-7-7--------4-4--2-2--0-0----------------------------------------|
D|-7-7--------4-4--2-2--0-0----------------------0-2-4-2-4-6-4-6---|

e|-----------------------------------------------------------------|
B|-----------------------------------------------------------------|
G|-----------------------------------------------------------------|
D|-7-7--------4-4--2-2--0-0----------------------------------------|
A|-7-7--------4-4--2-2--0-0----------------------------------------|
D|-7-7--------4-4--2-2--0-0--------------------------------0-2-4---| x2

e|-----------------------------------------------------------------|
B|-----------------------------------------------------------------|
G|-----------------------------------------------------------------|
D|-7-7--------4-4--2-2--0-0----------------------------------------|
A|-7-7--------4-4--2-2--0-0----------------------------------------|
D|-7-7--------4-4--2-2--0-0----------------------------------------| x2

[Pre Chorus] (1st Guitar)
e|---------------------------------------------------------------------------|
B|---------------------------------------------------------------------------|
G|---------------------------------------------------------------------------|
D|-7-7-7-7-7-7-7-7-9-9-9-9-9-9-9-9-11-11-11-11-11-11-11-11-7-7-7-7-7-7-7-7---|
A|-7-7-7-7-7-7-7-7-9-9-9-9-9-9-9-9-11-11-11-11-11-11-11-11-7-7-7-7-7-7-7-7---|
D|-7-7-7-7-7-7-7-7-9-9-9-9-9-9-9-9-11-11-11-11-11-11-11-11-7-7-7-7-7-7-7-7---|

e|-----------------------------------------------------------------|
B|-----------------------------------------------------------------|
G|-----------------------------------------------------------------|
D|-7-7-7-7-7-7-7-7-9-----------------------------------------------|
A|-7-7-7-7-7-7-7-7-9-----------------------------------------------|
D|-7-7-7-7-7-7-7-7-9-----------------------------------------------|

[Pre Chorus] (2nd guitar)
e|----------------------------------------------------------------|
B|----------------------------------------------------------------|
G|----------------------------------------------------------------|
D|-7--------------9---------------11----------------14----7-------|
A|----------------------------------------------------------------|
D|----------------------------------------------------------------|

e|----------------------------------------------------------------|
B|----------------------------------------------------------------|
G|----------------------------------------------------------------|
D|-7--------------9-----------------------------------------------|
A|----------------------------------------------------------------|
D|----------------------------------------------------------------|

[Chorus]
e|-----------------------------------------------------------------|
B|-----------------------------------------------------------------|
G|-----------------------------------------------------------------|
D|-7-7---2-2---4-4-----------------0-0---2-2---7-7-----------------|
A|-7-7---2-2---4-4-----------------0-0---2-2---7-7-----------------|
D|-7-7---2-2---4-4-----------------0-0---2-2---7-7-----------------| x2

[Verse]
e|-----------------------------------------------------------------|
B|-----------------------------------------------------------------|
G|-----------------------------------------------------------------|
D|-7-7--------4-4--2-2--0-0----------------------------------------|
A|-7-7--------4-4--2-2--0-0----------------------------------------|
D|-7-7--------4-4--2-2--0-0----------------------0-2-4-2-4-6-4-6---| x4

[Pre Chorus] (1st Guitar)
e|---------------------------------------------------------------------------|
B|---------------------------------------------------------------------------|
G|---------------------------------------------------------------------------|
D|-7-7-7-7-7-7-7-7-9-9-9-9-9-9-9-9-11-11-11-11-11-11-11-11-7-7-7-7-7-7-7-7---|
A|-7-7-7-7-7-7-7-7-9-9-9-9-9-9-9-9-11-11-11-11-11-11-11-11-7-7-7-7-7-7-7-7---|
D|-7-7-7-7-7-7-7-7-9-9-9-9-9-9-9-9-11-11-11-11-11-11-11-11-7-7-7-7-7-7-7-7---|

e|-----------------------------------------------------------------|
B|-----------------------------------------------------------------|
G|-----------------------------------------------------------------|
D|-7-7-7-7-7-7-7-7-9-----------------------------------------------|
A|-7-7-7-7-7-7-7-7-9-----------------------------------------------|
D|-7-7-7-7-7-7-7-7-9-----------------------------------------------|

[Pre Chorus] (2nd guitar)
e|-----------------------------------------------------------------|
B|-----------------------------------------------------------------|
G|-----------------------------------------------------------------|
D|-7---------------9---------------11----------------14----7-------|
A|-----------------------------------------------------------------|
D|-----------------------------------------------------------------|

e|-------------------------------------------------------------------|
B|-------------------------------------------------------------------|
G|-------------------------------------------------------------------|
D|-7---------------9-------------------------------------------------|
A|-------------------------------------------------------------------|
D|-------------------------------------------------------------------|

[Chorus]
e|-----------------------------------------------------------------|
B|-----------------------------------------------------------------|
G|-----------------------------------------------------------------|
D|-7-7---2-2---4-4-----------------0-0---2-2---7-7-----------------|
A|-7-7---2-2---4-4-----------------0-0---2-2---7-7-----------------|
D|-7-7---2-2---4-4-----------------0-0---2-2---7-7-----------------| x2

e|-----------------------------------------------------------------|
B|-----------------------------------------------------------------|
G|-----------------------------------------------------------------|
D|-7-7-7-2-2-2-4-4-4-4-4-4-4-4-4-4-0-0-0-2-2-2-7-7-7-7-7-7-7-7-7-7-|
A|-7-7-7-2-2-2-4-4-4-4-4-4-4-4-4-4-0-0-0-2-2-2-7-7-7-7-7-7-7-7-7-7-|
D|-7-7-7-2-2-2-4-4-4-4-4-4-4-4-4-4-0-0-0-2-2-2-7-7-7-7-7-7-7-7-7-7-|

e|-----------------------------------------------------------------|
B|-----------------------------------------------------------------|
G|-----------------------------------------------------------------|
D|-7-7-7-2-2-2-4-4-4-4-4-4-4-4-4-4-0-0---2-2---7-7-----------------|
A|-7-7-7-2-2-2-4-4-4-4-4-4-4-4-4-4-0-0---2-2---7-7-----------------|
D|-7-7-7-2-2-2-4-4-4-4-4-4-4-4-4-4-0-0---2-2---7-7-----------------|

[Bridge]
e|-----------------------------------------------------------------|
B|-----------------------------------------------------------------|
G|-----------------------------------------------------------------|
D|-----------------------------------------------------------------|
A|-2-2-4-4-4-----------------------2-2-0-0-0-----------------------|
D|-2-2-4-4-4-----------------------2-2-0-0-0-----------------------| x3

e|-----------------------------------------------------------------|
B|-----------------------------------------------------------------|
G|-----------------------------------------------------------------|
D|---------------------------------------0-------------------------|
A|-2-2-4-4-4-----------------------2-2-0-0-------------------------|
D|-2-2-4-4-4-----------------------2-2-0-0-------0-2-4-2-4-6-4-6---|

[Solo] (1st Guitar)
e|-----------------------------------------------------------------|
B|-----------------------------------------------------------------|
G|-----------------------------------------------------------------|
D|-7-7-7-2-2-2-4-4-4-4-4-4-4-4-4-4-0-0-0-2-2-2-7-7-7-7-7-7-7-7-7-7-|
A|-7-7-7-2-2-2-4-4-4-4-4-4-4-4-4-4-0-0-0-2-2-2-7-7-7-7-7-7-7-7-7-7-|
D|-7-7-7-2-2-2-4-4-4-4-4-4-4-4-4-4-0-0-0-2-2-2-7-7-7-7-7-7-7-7-7-7-| x2

e|---------------------------------------------------------------------------|
B|---------------------------------------------------------------------------|
G|---------------------------------------------------------------------------|
D|-7-7-7-7-7-7-7-7-9-9-9-9-9-9-9-9-11-11-11-11-11-11-11-11-7-7-7-7-7-7-7-7---|
A|-7-7-7-7-7-7-7-7-9-9-9-9-9-9-9-9-11-11-11-11-11-11-11-11-7-7-7-7-7-7-7-7---|
D|-7-7-7-7-7-7-7-7-9-9-9-9-9-9-9-9-11-11-11-11-11-11-11-11-7-7-7-7-7-7-7-7---|

e|-----------------------------------------------------------------|
B|-----------------------------------------------------------------|
G|-----------------------------------------------------------------|
D|-7-7-7-7-7-7-7-7-9-----------------------------------------------|
A|-7-7-7-7-7-7-7-7-9-----------------------------------------------|
D|-7-7-7-7-7-7-7-7-9-----------------------------------------------|

[Solo] (2nd Guitar)
e|-----------------------------------------------------------------|
B|-----------------------------------------------------------------|
G|-----------------------------------------------------------------|
D|-------7-----------7-----------7-9b--9b--9-7-9-------------------|
A|-7-9-7---9---7-9-7---9---7-9-7-----------------------------------|
D|-----------------------------------------------------------------|

e|-9-9-9--7-7-7--5-5-5---------------------------------------------|
B|----------------------9-9-9--7-7-7--5-5-5------------------------|
G|-------------------------------------------7-7-7-----------------|
D|-----------------------------------------------------------------|
A|-----------------------------------------------------------------|
D|-----------------------------------------------------------------|

e|-9-7------9-7------9-7------9-7----------------------------------|
B|-----10-7-----10-7-----10-7-----10-------------------------------|
G|-----------------------------------------------------------------|
D|-----------------------------------------------------------------|
A|-----------------------------------------------------------------|
D|-----------------------------------------------------------------|

e|-----------------------------------------------------------------|
B|-----------------------------------------------------------------|
G|-----------------------------------------------------------------|
D|-7--7-7-7---9-9------------------11\9-9--------------------------|
A|-----------------x-7----------------------7---9------------------|
D|-----------------------------------------------------------------|

e|-----------------------------------------------------------------|
B|--------------------------------------------------------9h10p9---|
G|-----------------------------------------------------------------|
D|-7--7-7-7---x-9--------------------------------------------------|
A|-----------------------------------------------------------------|
D|-----------------------------------------------------------------|

[Outro]
e|-----------------------------------------------------------------|
B|-----------------------------------------------------------------|
G|-----------------------------------------------------------------|
D|-7-7-7-2-2-2-4-4-4-4-4-4-4-4-4-4-0-0-0-2-2-2-7-7-7-7-7-7-7-7-7-7-|
A|-7-7-7-2-2-2-4-4-4-4-4-4-4-4-4-4-0-0-0-2-2-2-7-7-7-7-7-7-7-7-7-7-|
D|-7-7-7-2-2-2-4-4-4-4-4-4-4-4-4-4-0-0-0-2-2-2-7-7-7-7-7-7-7-7-7-7-| x3

e|-----------------------------------------------------------------|
B|-----------------------------------------------------------------|
G|-----------------------------------------------------------------|
D|-7-7-7-2-2-2-4-4-4-4-4-4-4-4-4-4-0-0---2-2---7-7-----------------|
A|-7-7-7-2-2-2-4-4-4-4-4-4-4-4-4-4-0-0---2-2---7-7-----------------|
D|-7-7-7-2-2-2-4-4-4-4-4-4-4-4-4-4-0-0---2-2---7-7-----------------|



************************************

| b  Bend
| \  Slide down
| x  Dead note
| h  Hammer-on
| p  Pull-off

************************************
Suggest correction
Creating personal tab
Creating personal tab
You can edit any tab online and save it as your Personal.

You can edit, replace or remove any tab part or add personal notes – all changes will be seen only by you.

Personal tabs can be accessed anytime from any device, even offline.
Learn more »
Give kudos to tab author, rate the tab!
1 2 3 4 5
comments
print report bad tab
guest
You may want to rate the tab now too:
select rating
Wanna post a correction for this tab? Suggest correction