Oops, an error
Loading. Please wait.

Alices Theme Tab

4,135 views 12 this week
no commentswrite comment
1 2 3 4 5
3 more votes to show rating
add to favorites
launch autoscroll
font size
0
reset
how to read this tab
guitar tuner
Autoscroll
slow
fast
+/-
esc
set tempo
stop
Help us to improve Ultimate-Guitar.com Take our survey!
×
Author
Difficulty
novice
                                  Alice's Theme                                   


                                  Danny Elfman




                         |--3--|  |--3--|  |--3--|  |--3--|   
                                                 
E||-------------------|--8--5--7--8--5--7--8--5--7--8--5--7--|
B||-------------------|--------------------------------------|
G||-------------------|--------------------------------------|
D||-------------------|--------------------------------------|
A||-------------------|--------------------------------------|
E||-------------------|--------------------------------------|


 |--3--|  |--3--|  |--3--|  |--3--|     |--3--|  |--3--|  |--3--|  |--3--|   
                                                      
-8--5--7--8--5--7--8--5--7--8--5--7-|--8--5--7--8--5--7--8--5--7--8--5--7-|
------------------------------------|-------------------------------------|
------------------------------------|-------------------------------------|
------------------------------------|-------------------------------------|
------------------------------------|-------------------------------------|
------------------------------------|-------------------------------------|


                                                                            
--8--------------|--0--------------|--1--------------|--2--------------|
-----------------|-----------------|-----------------|-----------------|
-----------------|-----------------|-----------------|-----------------|
-----------------|-----------------|-----------------|-----------------|
-----------------|-----------------|-----------------|-----------------|
-----------------|-----------------|-----------------|-----------------|


                                                         
--0----------------|--1----------------|--2----------------|
-------------------|-------------------|-------------------|
-------------------|-------------------|-------------------|
-------------------|-------------------|--0----------------|
-------------------|--4----------------|-------------------|
--0----------------|-------------------|-------------------|


                                                             Em                
|--3--|  |--3--|  |--3--|  |--3--|                                           
                                                                 
-3--0--2--3--0--2--3--0--2--3--0--2--|-3----------------|------------------|
-------------------------------------|------------------|------------------|
-------------------------------------|------------------|------------------|
-------------------------------------|------------------|-2----------------|
-------------------------------------|------------------|-2----------------|
-------------------------------------|------------------|-0----------------|


  F                   F#                  E7                
                                                         
--1----------------|--2----------------|--4----------------|
--1----------------|--2----------------|--3----------------|
--2----------------|--3----------------|--4----------------|
--3----------------|--4----------------|--2----------------|
--0----------------|--4----------------|--2----------------|
-------------------|-------------------|-------------------|


                                                                 
                                                                  
                                                         
--------------------|-------0----0---------|----------------------|
--------------------|-----------------3----|--1----3----0----1----|
--------------------|--2-------------------|----------------------|
--2-----------------|----------------------|----------------------|
--------------------|----------------------|----------------------|
-----------0--------|----------------------|----------------------|


                                                          
-------------------|-------0----0---------|--0----2--------3p--2--|
--L----------------|-----------------3----|-----------------------|
-------------------|--2-------------------|-----------------------|
-------------------|----------------------|-----------------------|
-------------------|----------------------|-----------------------|
-------------------|----------------------|-----------------------|


                                                           
--L----------------||-------------0----0----|----------------------|
-------------------||-----------------------|--3----1----3----0----|
-------------------||*-------2--------------|----------------------|
-------------------||*----------------------|----------------------|
-------------------||---0-------------------|----------------------|
-------------------||-----------------------|----------------------|


  Am                                                                    
                                         3x                   
--0----------------|-----------------------||--0--0--------------------|
--1----------------|--1--------------------||--------------1--1--0-----|
--2----------------|----2--------L--------*||--------2--2-----------2--|
--2----------------|----------------------*||--------------------------|
--0----------------|-----------------------||--------------------------|
-------------------|-----------------------||--------------------------|


                                                         
--0--0--------------------|--0--0--------------------|-------------------|
--------------1--1--0-----|--------------1--1--0-----|-------------------|
--------2--2-----------2--|--------2--2-----------2--|--L----------------|
--------------------------|--------------------------|-------------------|
--------------------------|--------------------------|-------------------|
--------------------------|--------------------------|-------------------|


                                       
--0----------------|-----------------------||
--1----------------|--1h----------L--------||
--2----------------|-----2-----------------||
--0----------------|-----------------------||
--0----------------|-----------------------||
-------------------|-----------------------||
Suggest correction
Give kudos to tab author, rate the tab!
1 2 3 4 5
comments
print report bad tab
guest
You may want to rate the tab now too:
select rating
Wanna post a correction for this tab? Suggest correction