Oops, an error
Loading. Please wait.

Jacks Lament Tab

version 1
version 1

Intro

Interactive

22,312 views 33 this week
1 commentread comment
1 2 3 4 5
accurate
x 7
add to favorites
launch autoscroll
font size
0
reset
how to read this tab
guitar tuner
Tab Pro tools
  • play this tab
  • loop segment
  • change instrument
  • show fretboard
  • metronome
×
Best way to learn
"Jacks Lament"
Autoscroll
slow
fast
+/-
esc
set tempo
stop
Contributor
this was done by hand and took me all night and this is my first tab so plz critisize 
this is in 4/4 time and they are all 16th note except for the chord which is a quarter note
ps i did this by translating it from the music book so if you have any nightmare 
pm me

e---1---1---1---1-|---1---1---------|----------------|
B--2-2-2-2-2-2-2-2|--2-2-2-2--2---2-|----------------|
G-3---2---1---0---|-1---0----3-3-3-3|--0-3-0-0-3-0-3-|
D-----------------|---------4---3---|-2------------5-|
A-----------------|-----------------|-------4------7-|
E-----------------|-----------------|--------------6-|
comments
print report bad tab
1 comment total.
+2 reply
ozoune wrote on March 10 2013, 03:09 am

Vocal melody:
e |-------------------------------------------------------------
B |-------------------------------------------------------------
G | --14-13-----14-11----14-13-11-10-8-------------
D |------------------------------------------------------------
A |------------------------------------------------------------
E |------------------------------------------------------------

e |------------------------------------------------------------
B |------------------------------------------------------------
G |---11-10-----11-8-----11--10--8--7----8----------
D |------------------------------------------------------------
A |------------------------------------------------------------
E |------------------------------------------------------------

Middle instrumental:
e |-----------------------------------------------------------
B |----------------------16-14-----------------------------
G |--15-16--15-16-----------16-13-15---------------
D |------------------------------------------------------------
A |------------------------------------------------------------
E |------------------------------------------------------------

e |----------------------------------------------------------------------
B |-----------------------14-12-11---------------------------------------
G |--13-15--13--15----------------11-13--11-13--11-13--10-11--10-11--
D |----------------------------------------------------------------------
A |----------------------------------------------------------------------
E |----------------------------------------------------------------------

e |--------------------------------------------------------------
B |--------------------------------------------------------------
G |---15-16--15-16--15-16-----------------------------
D |------------------------------------------------------------
A |------------------------------------------------------------
E |------------------------------------------------------------

Big finish:
e |-------------------------------------------------------------------
B |--18-17------18--15-----18--17--15--14--12-----------
G |------------------------------------------------------------------
D |------------------------------------------------------------------
A |-------------------------------------------------------------------
E |-------------------------------------------------------------------

e |-------------------------------------------------------------------
B |---15--14------15--14-----15--14--12--11-----12------
G |-------------------------------------------------------------------
D |------------------------------------------------------------------
A |------------------------------------------------------------------
E |------------------------------------------------------------------

I want to post or [tab]
guest
You may want to rate the tab now too:
select rating
Please do not post tabs as comments. Select "correction" instead!