Oops, an error
Loading. Please wait.

Mars Attacks Main Titles Tab

210 views 1 this week
no commentswrite comment
1 2 3 4 5
please rate
add to favorites
launch autoscroll
font size
0
reset
how to read this tab
guitar tuner
Tab Pro tools
  • play this tab
  • loop segment
  • change instrument
  • show fretboard
  • metronome
×
Best way to learn
"Mars Attacks Main Titles"
Autoscroll
slow
fast
+/-
esc
set tempo
stop
Contributor
Mars Attacks theme - Danny Elfman

Intro:

Bbm

Bbm  B   Bbm   G

Bbm

Theme :

Riff 1 (palm mute)

 Bbm

|----------------------|----------------------|---------------------|----------------------|
|----------------------|----------------------|---------------------|----------------------|
|-6-6-5-6----6-6-5-6-8-|-6-6-5-6--3--5--------|-6-6-5-6---6-6-5-6-8-|-6-6-5-6--3--5--------|
|---------8------------|----------------7--8--|---------8-----------|----------------7--8--|
|----------------------|----------------------|---------------------|----------------------|
|----------------------|----------------------|---------------------|----------------------|

|---------------------------|------------------------|
|---------------------------|------------------------|
|-6-6-5-6-8--10--11--10--8--|-10-10-8-6--5--6--8--6--|
|---------------------------|------------------------|
|---------------------------|------------------------|
|---------------------------|------------------------|

|-------------------------------|----------------------------|
|-----------------9--11--9------|----------------------------|
|-10-10-8-10--11------------11--|--10-10-8-6--5--8--6--5-----|
|-------------------------------|-------------------------8--|
|-------------------------------|----------------------------|
|-------------------------------|----------------------------|


B    Bbm

G    Bbm

E

Theme reprise:

Bbm (Riff 1)

B    Bbm

G    Bbm

E

Bbm

Bridge:


G#m   Em


G#m   D


G#m   Em


G#    C


Ebm   D


G#    C


E      Eb      C     Bb


A      Gm       B


Outro:


 C#m (Riff 2 - Theme Reprise )

|-----------------------|------------------------|-----------------------|------------------------|
|-----------------------|------------------------|-----------------------|------------------------|
|-9-9-8-9----9-9-8-9-11-|-9-9-8-9--6--8----------|-9-9-8-9----9-9-8-9-11-|-9-9-8-9--6--8----------|
|---------11------------|----------------10--11--|---------11------------|----------------10--11--|
|-----------------------|------------------------|-----------------------|------------------------|
|-----------------------|------------------------|-----------------------|------------------------|

|-----------------------------|--------------------------|-----------------------------|
|-----------------------------|--------------------------|-----------------------------|
|-9-9-8-9-11--13--14--13--11--|-13-13-11-9--8--9--13--11-|-13-13-11-13--14-8--9--8-----|
|-----------------------------|--------------------------|-------------------------11--|
|-----------------------------|--------------------------|-----------------------------|
|-----------------------------|--------------------------|-----------------------------|


C#m   D    C#m   Bb   C#m


G D G D G


C#

Ending.
comments
We did not receive enough feedback on this tab! Please rate:
print report bad tab
1 2 3 4 5
I want to post or [tab]
guest
You may want to rate the tab now too:
select rating
Please do not post tabs as comments. Select "correction" instead!