Oops, an error
Loading. Please wait.

The Little Things Tab

version 4
version 4

Whole song

Interactive

1,710 views 3 this week
no commentswrite comment
1 2 3 4 5
please rate
add to favorites
launch autoscroll
font size
0
reset
how to read this tab
guitar tuner
Tab Pro tools
  • play this tab
  • loop segment
  • change instrument
  • show fretboard
  • metronome
×
Best way to learn
"The Little Things"
Autoscroll
slow
fast
+/-
esc
set tempo
stop
Contributor
Difficulty
novice
\-slide down
/-slide up
H hammeron
First bass riff:
e|---------------------------------------------------------------|
B|---------------------------------------------------------------|
G|---------------------------------------------------------------|
D|---------------------------------------------------------------|
A|-----1--2-1---1---2-1-----1--2-1-4-1-2---1---2-1---------------|
E|---4--------4-----------4--------------4-----------------------|
From 0:08
e|---------------------------------------------------------------|
B|---------------------------------------------------------------|
G|---------------------------------------------------------------|
D|---------------------------------------------------------------|
A|---6--8--7-8------6--8--7-8-----6--8--7-8-9--8-9-6--8--7-8-----|
E|---4--6--9-6------4--6--9-6-----4--6--9-6-11-6-7-4--6--9-6-----|
Lyrics enter 0:16 ,Listen to the rythm and play:
e|---------------------------------------------------------------|
B|---------------------------------------------------------------|
G|---------------------------------------------------------------|
D|---------------------------------------------------------------|
A|-||--8---8-8--4\6-6||-----6--8--7-8-9--8-9-6--8--7-8-----------|
E|-||8-6---6-6--2\4-4||x3---4--6--9-6-11-6-7-4--6--9-6-----------|
0:34 Again
e|---------------------------------------------------------------|
B|---------------------------------------------------------------|
G|---------------------------------------------------------------|
D|---------------------------------------------------------------|
A|-||--8---8-8--4\6-6||-----6--8--7-8-9--8-9-6--8--7-8-----------|
E|-||8-6---6-6--2\4-4||x3---4--6--9-6-11-6-7-4--6--9-6-----------|
Now 0:47
e|---------------------------------------------------------------|
B|---------------------------------------------------------------|
G|---------------------------------------------------------------|
D|--------------------|3\4--4-4--4-4-4|--|6\7--7-7-7-7-7|--------|
A|-|3\4--4-4--4-4-4|--|5\6--6-6--6-6-6|x2|8\9--9-9-9-9-9|x2------|
E|-|5\6--6-6--6-6-6|x2-------------------------------------------|
Continuation:
e|---------------------------------------------------------------|
B|---------------------------------------------------------------|
G|---------------------------------------------------------------|
D|--|9-\11--11-11--11-11-11|---9-\11--11-11--11-11-11-11-11-11-11|
A|--|11\12--12-12--12-12-12|x4-11\12--12-12--12-12-12-12-12-12-12|
E|---------------------------------------------------------------|
Now Back to main riff 1:10 Repeat 2 times
e|---------------------------------------------------------------|
B|---------------------------------------------------------------|
G|---------------------------------------------------------------|
D|---------------------------------------------------------------|
A|---6--8--7-8------6--8--7-8-----6--8--7-8-9--8-9-6--8--7-8-----|
E|---4--6--9-6------4--6--9-6-----4--6--9-6-11-6-7-4--6--9-6-----|
Lyrics 1:25 Repeat 2 times
e|---------------------------------------------------------------|
B|---------------------------------------------------------------|
G|---------------------------------------------------------------|
D|---------------------------------------------------------------|
A|-||--8---8-8--4\6-6||-----6--8--7-8-9--8-9-6--8--7-8-----------|
E|-||8-6---6-6--2\4-4||x3---4--6--9-6-11-6-7-4--6--9-6-----------|
Now 1:55
e|---------------------------------------------------------------|
B|---------------------------------------------------------------|
G|---------------------------------------------------------------|
D|--------------------|3\4--4-4--4-4-4|--|6\7--7-7-7-7-7|--------|
A|-|3\4--4-4--4-4-4|--|5\6--6-6--6-6-6|x2|8\9--9-9-9-9-9|x2------|
E|-|5\6--6-6--6-6-6|x2-------------------------------------------|
Continuation:
e|---------------------------------------------------------------|
B|---------------------------------------------------------------|
G|---------------------------------------------------------------|
D|--|9-\11--11-11--11-11-11|---9-\11--11-11--11-11-11-11-11-11-11|
A|--|11\12--12-12--12-12-12|x4-11\12--12-12--12-12-12-12-12-12-12|
E|---------------------------------------------------------------|
After this main riff
e|---------------------------------------------------------------|
B|---------------------------------------------------------------|
G|---------------------------------------------------------------|
D|---------------------------------------------------------------|
A|---6--8--7-8------6--8--7-8-----6--8--7-8-9--8-9-6--8--7-8-----|
E|---4--6--9-6------4--6--9-6-----4--6--9-6-11-6-7-4--6--9-6-----|
And now solo 2:27
e|---------------------------------------------------------------|
B|--14--13--14-13-13--13/11-11-11--11-9\11-11-11--14--14-14-14---|
G|---------------------------------------------------------------|
D|---------------------------------------------------------------|
A|---------------------------------------------------------------|
E|---------------------------------------------------------------|
Continuation:
e|---------------------------------------------------------------|
B|13H14--13H14--13H14--13H14--|16--16--14-14--13-13/11-11|x2-----|
G|---------------------------------------------------------------|
D|---------------------------------------------------------------|
A|---------------------------------------------------------------|
E|---------------------------------------------------------------|
Continuation Now faster:
e|---------------------------------------------------------------|
B|16-16-14-14-13-13-14-14-16-16-14-14-13-13-14--16^Full----------|
G|---------------------------------------------------------------|
D|---------------------------------------------------------------|
A|---------------------------------------------------------------|
E|---------------------------------------------------------------|
2:50 Back to main riff
e|---------------------------------------------------------------|
B|---------------------------------------------------------------|
G|---------------------------------------------------------------|
D|---------------------------------------------------------------|
A|---6--8--7-8------6--8--7-8-----6--8--7-8-9--8-9-6--8--7-8-----|
E|---4--6--9-6------4--6--9-6-----4--6--9-6-11-6-7-4--6--9-6-----|
2:57 Guitar turns off

I hope i helped plz rate and comment.
Tab By Lisulis.
comments
We did not receive enough feedback on this tab! Please rate:
print report bad tab
1 2 3 4 5
I want to post or [tab]
guest
You may want to rate the tab now too:
select rating
Please do not post tabs as comments. Select "correction" instead!