Oops, an error
Loading. Please wait.

This Is Halloween Tab

version 1
version 1

Whole song

Interactive

27,759 views 12 this week
5 commentsread comments
1 2 3 4 5
x 7
add to favorites
launch autoscroll
font size
0
reset
how to read this tab
guitar tuner
Autoscroll
slow
fast
+/-
esc
set tempo
stop
Help us to improve Ultimate-Guitar.com Take our survey!
×
Author
Difficulty
Tabbers playing skills
novice
intermediate ++
----------------------------------------------------------------------------
                             SONG NAME - Band Name
----------------------------------------------------------------------------
Tabbed by:King ofKumbucha
Tuning:Standard

I saw a video of Buckethead playing this as an opening to one of his songs and I thought
was cool.  I made it up so I'm just going by the way it sounds...Play with a lot of
and be sure to use some Palm muting on the 5th and 6th string part.  You could also play 
with power cords as long as you use the same intervals and adjust the frets and strings accordingly.
Enjoy.

e|-3--3--3--3--3-4-1-1---1--1--1--1--1-3-4-3|
B|------------------------------------------|
G|------------------------------------------|
D|------------------------------------------|
A|------------------------------------------|
E|------------------------------------------|

e|3--3--3--4--6-4-3-1--1--1--1--3-4-3--------------------------------------|
B|------------------------------------4-3----------------------------------|
G|-------------------------------------------------------------------------|
D|-------------------------------------------------------------------------|
A|-------------------------------------------------------------------------|
E|-------------------------------------------------------------------------|
Now P.M.
e|-------------------------------------------------------------------------|
B|-------------------------------------------------------------------------|
G|-------------------------------------------------------------------------|
D|-------------------------------------------------------------------------|
A|-6--6--6--4-3--6--6--6--4-3--6--------------2--3--2----------------------|
E|--------------------------------6--6--4-3-1------------------------------|

e|-------------------------------------------------------------------------|
B|-------------------------------------------------------------------------|
G|-------------------------------------------------------------------------|
D|-------------------------------------------------------------------------|
A|-6--6--6--4-3--6--6--6--4-3--643-643-------------------------------------|
E|-------------------------------------643-643-----------------------------|
Suggest correction
comments
print report bad tab
5 comments total. Showing first comments.
0 reply
King ofKumbucha 317 May 01, 2006 06:35 PM

One thing I forgot to mention, I sometimes play this as an intro to my set and on the last note I let it ring without p.m....nice and distorted

0 reply
Warheart1188 121 Mar 18, 2007 11:13 PM

doesnt sound right

+2 reply
6slaytanic66 130 Oct 24, 2007 12:09 AM

Now P.M.
e|-------------------------------------------------------------------------|
B|-------------------------------------------------------------------------|
G|-------------------------------------------------------------------------|
D|-------------------------------------------------------------------------|
A|-6--6--6--5-3--6--6--6--5-3--6--------------2--3-------------------------|
E|--------------------------------6--6--5-3-1------------------------------|

it should be this.

guest
You may want to rate the tab now too:
select rating
Wanna post a correction for this tab? Suggest correction