Oops, an error
Loading. Please wait.

I Got Bones chords

version 2
version 2

Whole song

436 views 9 this week
no commentswrite comment
1 2 3 4 5
1 last vote to show rating
add to favorites
×
Save as Personal and add changes to this tab that will be seen only by you. Learn more ›
×
You can save this tab as Personal to edit and correct it or add notes. All changes will be seen only by you. Learn more »
launch autoscroll
font size
0
reset
transpose
0
reset
display chords
guitar tuner
edit
Autoscroll
slow
fast
+/-
esc
set tempo
stop
Author
Difficulty
Strumming Is this strumming pattern correct? Yes No
100 bpm
1
2
3
4
5
6
7
8
9
Listen
LEGEND:
X - Palm Mute
^ - Accented chord

[VERSE]
 Em                            C               D
E|--------------------------------------------------------------|
B|--------------------------------------------------------------|
G|-------0--------------0--------------0----------------0-------| x3
D|---2------2---2---2------2---2---2------2---2---4---4---4-----|
A|-----2------2-------2------2--/3---3------3--/5---5-------5\--|
E|-0--------------0---------------------------------------------|

 C                         G             D
E|--------------------------------------------------------------|
B|--------------------------------------------------------------|
G|-------5------4------2----------------------------------------|
D|---2------2------2------2----2--------0-------0---4---4-5h---4|
A|-3---3------3------3------3--------2---2---2---/5---5------5--|
E|---------------------------------3---3---3--------------------|

N.C.
Like a moth to a flame, that neon light must've been calling our names
N.C.
"Cause here we are drinking down doubles
N.C.
Drowning out the same kinda troubles that brought us here in the first place

[CHORUS]
E                                                         Bb    A                   
We can take another hit, bring on the sticks, take me to heaven with one hell of kiss
A                        ^G                   A                  ^G    E
Let them throw their stones, ain't gonna slow our roll baby don't ya know
E                                            Bb    A
Don't give a damn about no words, even less about what you mighta heard
A            ^G              A                  ^G   E
'Cause baby I got bones when you're ready to jump them

[VERSE]
 Em                            C               D
E|--------------------------------------------------------------|
B|--------------------------------------------------------------|
G|-------0--------------0--------------0----------------0-------| x3
D|---2------2---2---2------2---2---2------2---2---4---4---4-----|
A|-----2------2-------2------2--/3---3------3--/5---5-------5\--|
E|-0--------------0---------------------------------------------|

 C                         G             D
E|--------------------------------------------------------------|
B|--------------------------------------------------------------|
G|-------5------4------2----------------------------------------|
D|---2------2------2------2----2--------0-------0---4---4-5h---4|
A|-3---3------3------3------3--------2---2---2---/5---5------5--|
E|---------------------------------3---3---3--------------------|
 
 C                         G             D
E|--------------------------------------------------------------|
B|------------------------------------------------2-------------|
G|-------5------4------2--------------------------2-------------|
D|---2------2------2------2----2----------5h------2-------------|
A|-3---3------3------3------3--------4---4---4------------------|
E|---------------------------------5---5---5--------------------|

N.C.
I seen your face around the town
N.C.
Looking like a queen, sipping on crown
N.C.
Ice blue eyes burning like a fire
N.C.
I didn't think twice 'bout leaning up beside you
N.C.
It's crystal clear, my intentions
N.C.
Let's disappear, I got oh so much to you

[CHORUS]
E                                                         Bb    A                   
We can take another hit, bring on the sticks, take me to heaven with one hell of kiss
A                      ^G                        A                ^G    E
Let them throw their stones, ain't gonna slow our roll baby don't ya know
                                            Bb    A
Don't give a damn about no words, even less about what you mighta heard
 A           ^G                A              ^G  E
'Cause baby I got bones when you're ready to jump them

[BRIDGE]
E             
I said hey there pretty lady won't you come out and play
D
I've been jonesing for your love since walking into the place
C                                      A                        
Been shaking all night hoping that you just might fall outta my head and into my bed
A                                     X 
outta my head and into my bed and then...

[CHORUS]
E                                                         Bb    A                   
We can take another hit, bring on the sticks, take me to heaven with one hell of kiss
A                     ^G                         A               ^G    E
Let them throw their stones, ain't gonna slow our roll baby don't ya know
E                                           Bb    A
Don't give a damn about no words, even less about what you mighta heard
 A           ^G               A               ^G  E
'Cause baby I got bones when you're ready to jump them

[OUTRO]
E Bb A G E 
Suggest correction
Creating personal tab
Creating personal tab
You can edit any tab online and save it as your Personal.

You can edit, replace or remove any tab part or add personal notes – all changes will be seen only by you.

Personal tabs can be accessed anytime from any device, even offline.
Learn more »
Give kudos to tab author, rate the tab!
1 2 3 4 5
comments
print report bad tab
guest
You may want to rate the tab now too:
select rating
Wanna post a correction for this tab? Suggest correction