Oops, an error
Loading. Please wait.

Htes To Vradi Sto Teke Mas tab

55 views 3 this week
no commentswrite comment
1 2 3 4 5
2 more votes to show rating
add to favorites
×
Save as Personal and add changes to this tab that will be seen only by you. Learn more ›
×
You can save this tab as Personal to edit and correct it or add notes. All changes will be seen only by you. Learn more »
launch autoscroll
font size
0
reset
how to read this tab
guitar tuner
edit
Autoscroll
slow
fast
+/-
esc
set tempo
stop
Author
Difficulty
Dans Dans - Htes To Vradi Sto Steke Mas (Traditional greek tune)
Standard tuning
Reverb on guitar
This is the whole tab but improvisation is recommended


[0:00] Main melody
e|---------------------------------------------------------------------------|
B|---------------------------------------------------------------------------|
G|---------------------------------------------------------------------------|
D|---------------------------------------------------------------------------|
A|--6--6-----6-----4--6-6----------------------------------------------------|
E|--4--4--4-----7------------------------------------------------------------|

e|---------------------------------------------------------------------------|
B|---------------------------------------------------------------------------|
G|---------------------------------------------------------------------------|
D|---------------------------------------------------------------------------|
A|--6--6---6/9\6-----4--6-6--------------------------------------------------|
E|--4--4----------7----------------------------------------------------------|


e|---------------------------------------------------------------------------|
B|---------------------------------------------------------------------------|
G|---------------------------------------------------------------------------|
D|---------------------------------------------------------------------------| x2
A|--6h7--9-6-7-4---2h4--6-2h4------------------------------------------------|
E|--4------------------------5-4-4-------------------------------------------|

e|---------------------------------------------------------------------------|
B|---------------------------------------------------------------------------|
G|---------------------------------------------------------------------------|
D|---------------------------------------------------------------------------|
A|--6--6-----6-----4--6-6----------------------------------------------------|
E|--4--4--4-----7------------------------------------------------------------|

e|---------------------------------------------------------------------------|
B|---------------------------------------------------------------------------|
G|---------------------------------------------------------------------------|
D|---------------------------------------------------------------------------|
A|--6--6---6/9\6-----4--6-6--------------------------------------------------|
E|--4--4----------7----------------------------------------------------------|


e|---------------------------------------------------------------------------|
B|---------------------------------------------------------------------------|
G|---------------------------------------------------------------------------|
D|---------------------------------------------------------------------------| x2
A|--6h7--9-6-7-4---2h4--6-2h4------------------------------------------------|
E|--4------------------------5-4-4-------------------------------------------|

[0:38] extra variation
e|---------------------------------------------------------------------------|
B|---------------------------------------------------------------------------|
G|---------------------------------------------------------------------------|
D|---------------------------------------------------------------------------|
A|--6--6-----6-----4--6-6----(6/11\6)----------------------------------------|
E|--4--4--4-----7------------------------------------------------------------|


e|---------------------------------------------------------------------------|
B|---------------------------------------------------------------------------|
G|---------------------------------------------------------------------------|
D|---------------------------------------------------------------------------|
A|--6--6---6/9\6-----4--6-6--------------------------------------------------|
E|--4--4----------7----------------------------------------------------------|


e|---------------------------------------------------------------------------|
B|---------------------------------------------------------------------------|
G|---------------------------------------------------------------------------|
D|---------------------------------------------------------------------------| x2
A|--6h7--9-6-7-4---2h4--6-2h4------------------------------------------------|
E|--4------------------------5-4-4-------------------------------------------|



[0:58 - 1:16] Percussion



[1:16]

e|---------------------------------------------------------------------------|
B|---------------------------------------------------------------------------|
G|---------------------------------------------------------------------------|
D|---------------------------------------------------------------------------|
A|--6--6-----6-----4--6-6----------------------------------------------------|
E|--4--4--4-----7------------------------------------------------------------|

e|---------------------------------------------------------------------------|
B|---------------------------------------------------------------------------|
G|---------------------------------------------------------------------------|
D|---------------------------------------------------------------------------|
A|--6--6---6/9\6-----4--6-6--------------------------------------------------|
E|--4--4----------7----------------------------------------------------------|


e|---------------------------------------------------------------------------|
B|---------------------------------------------------------------------------|
G|---------------------------------------------------------------------------|
D|---------------------------------------------------------------------------|
A|--6h7--9-6-7-4---2h4--6-2h4----4h6--9-6-7-4---2h4--6-2h4-------------------|
E|--4------------------------5-4-4-------------------------5-4-4-------------|

[1:35]
e|---------------------------------------------------------------------------|
B|---------------------------------------------------------------------------|
G|---------------------------------------------------------------------------|
D|---------------------------------------------------------------------------|
A|--6--6-----6-----4--6-6-(6/11\6)-------------------------------------------|
E|--4--4--4-----7------------------------------------------------------------|

e|---------------------------------------------------------------------------|
B|---------------------------------------------------------------------------|
G|---------------------------------------------------------------------------|
D|---------------------------------------------------------------------------|
A|--6--6---6/9\6-----4--6-6--------------------------------------------------|
E|--4--4----------7----------------------------------------------------------|

e|---------------------------------------------------------------------------|
B|---------------------------------------------------------------------------|
G|---------------------------------------------------------------------------|
D|---------------------------------------------------------------------------|
A|--6h7--9-6-7-4---2h4--6-2h4----6-4h6--9-6-7-4---2h4--6-2h4-----------------|
E|--4------------------------5-4---4-------------------------5-4-4\2/4\2/4---|

e|---------------------------------------------------------------------------|
B|---------------------------------------------------------------------------|
G|---------------------------------------------------------------------------|
D|-------------------6-----------4-------------------------------------------|
A|-----6-----4--6-6-----6--6--6-----6--2--4--6-6-----------------------------|
E|--4-----7------------------------------------------------------------------|

e|---------------------------------------------------------------------------|
B|---------------------------------------------------------------------------|
G|---------------------------------------------------------------------------|
D|---------------------------------------------------------------------------|
A|--6/7-/9\6/7\4--2/4/6\2/4-----4---6h7--/9-6-7-4---2h4-6--2h4---------------|
E|--------------------------5-4--------------------------------5--4-4--------|

[2:12] (with low setting octaver?)
e|---------------------------------------------------------------------------|
B|---------------------------------------------------------------------------|
G|---------------------------------------------------------------------------|
D|---------------------------------------------------------------------------|
A|--6--6-----6-----4--6-6----------------------------------------------------|
E|--4--4--4-----7------------------------------------------------------------|

e|---------------------------------------------------------------------------|
B|---------------------------------------------------------------------------|
G|---------------------------------------------------------------------------|
D|---------------------------------------------------------------------------|
A|--6--6---6/9\6-----4--6-6--------------------------------------------------|
E|--4--4----------7----------------------------------------------------------|


e|----------------------------------------------------------------------------------------|
B|----------------------------------------------------------------------------------------|
G|----------------------------------------------------------------------------------------|
D|----------------------------------------------------------------------6---8-9------8-8v-| 
A|--6h7--9-6-7-4---2h4--6-2h4------4--6-7--9-6-7-4--2h4--6--2-4---------------------------|
E|--4------------------------5-4-4------------------------------5-4-4---------------------|

e|---------------------------------------------------------------------------|
B|---------------------------------------------------------------------------|
G|---------------------------------------------------------------------------|
D|---------------------------------------------------------------------------|
A|--4h6h7p6h7p6~~~----2--2-1-1-----------------------------------------------|
E|-------------------------------2--/4---------------------------------------|


[2:45] - 3:38] Percussion and turning pedals


[3:38]
e|---------------------------------------------------------------------------|
B|---------------------------------------------------------------------------|
G|---------------------------------------------------------------------------|
D|---------------------------------------------------------------------------|
A|---------------------------------------------------------------------------|
E|--0-0----------------------------------------------------------------------|


[0:39 - 4:14] Percussion


[4:14]
e|---------------------------------------------------------------------------|
B|---------------------------------------------------------------------------|
G|---------------------------------------------------------------------------|
D|---------------------------------------------------------------------------|
A|---------------------------------------------------------------------------|
E|--7-7-7-7-7-7-7-\4---------------------------------------------------------|

[4:30 - 4:44] While Pick D-string behind bridge or headstock
e|---------------------------------------------------------------------------|
B|---------------------------------------------------------------------------|
G|---------------------------------------------------------------------------|
D|---------------------------------------------------------------------------|
A|---------------------------------------------------------------------------|
E|---/4----------------------------------------------------------------------|

[4:44] Percussion, Bells, electronics


[5:37 - 8:00] Bownoise on guitar


[8:00]
e|---------------------------------------------------------------------------|
B|---------------------------------------------------------------------------|
G|--8-9-11-8-9-6--4-6-8-4-6-----8--8-9-11-8-8-6--4-6-8-4-6-------------------|
D|-------------------------7-6----------------------------7-6-6--------------|
A|---------------------------------------------------------------------------|
E|---------------------------------------------------------------------------|

e|-----------------------------------------------------------------|
B|----------------------9------------------------------------------|
G|--8--8----8---6-8-8--8--8--8/11\8---6-8-8------------------------|
D|--------6---9---------------------7------------------------------|
A|-----------------------------------------------------------------|
E|-----------------------------------------------------------------|

e|---------------------------------------------------------------------------|
B|---------------------------------------------------------------------------|
G|--8-9-11-8-9-6--4-6-8-4-6-----8--8-9-11-8-8-6--4-6-8-4-6-------------------|
D|-------------------------7-6----------------------------7-6-6--------------|
A|---------------------------------------------------------------------------|
E|---------------------------------------------------------------------------|


[8:31] Hit string with loads of reverb




************************************


| h   Hammer-on
| p   Pull-off
| r   Release
| b   Bend
| /   Slide up
| \   Slide down
| ~   Vibrato

************************************
Suggest correction
Creating personal tab
Creating personal tab
You can edit any tab online and save it as your Personal.

You can edit, replace or remove any tab part or add personal notes – all changes will be seen only by you.

Personal tabs can be accessed anytime from any device, even offline.
Learn more »
Give kudos to tab author, rate the tab!
1 2 3 4 5
comments
print report bad tab
guest
You may want to rate the tab now too:
select rating
Wanna post a correction for this tab? Suggest correction