Oops, an error
Loading. Please wait.

Devils Plaything Tab

version 1
version 1

Whole song

Interactive

by Danzig
25,434 views 54 this week
2 commentsread comments
1 2 3 4 5
x 10
add to favorites
launch autoscroll
font size
0
reset
how to read this tab
guitar tuner
×
Best way to learn
"Devils Plaything"
Autoscroll
slow
fast
+/-
esc
set tempo
stop
[Intro]
E|-------------------------|-------------------------|
B|-------17-------17-------|-------15-------17-------|
G|----16-------16-------16-|----14-------16-------16-|
D|-14-------14-------14----|-12-------14-------14----|
A|-------------------------|-------------------------|
E|-------------------------|-------------------------|

[Intro fill]
E|-------------------------|-15-14-------------------|
B|-------17-------17-------|-------15-17----17-------|
G|----16-------16-------16-|-------------16-------16-|
D|-14-------14-------14----|-------------------14----|
A|-------------------------|-------------------------|
E|-------------------------|-------------------------|

[Verse]
E|-----------------|-----------------|-----------------|-------------------|
B|-----------------|-----------------|-----------------|--3----------------|
G|-----------------|-----------------|-----------------|-------------------|
D|-----2-2---2-2-2-|-----2-2---2-2-2-|-----2-2---2-2-2-|-(2)---3-2---2-2-2-|
A|-----2-2---2-2-2-|-----2-2---2-2-2-|-----2-2---2-2-2-|-(2)-2---2---2-2-2-|
E|-3^--0-0---0-0-0-|-3^--0-0---0-0-0-|-3^--0-0---0-0-0-|-(0)-----0---0-0-0-|

E|-----------------|-----------------|-----------------|-------------------|
B|-----------------|-----------------|-----------------|--3----------------|
G|-----------------|-----------------|-----------------|-------------------|
D|-----2-2---2-2-2-|-----2-2---2-2-2-|-----2-2---2-2-2-|-(2)---3-2---------|
A|-----2-2---2-2-2-|-----2-2---2-2-2-|-----2-2---2-2-2-|-(2)-2---2---------|
E|-3^--0-0---0-0-0-|-3^--0-0---0-0-0-|-3^--0-0---0-0-0-|-(0)-----0---------|

[Chorus]
E|------------------|------------------|------------------|-----------------|
B|----/9------------|----/9------------|----/9------------|-----------------|
G|----/9-----12-11--|----/9-----12-11--|----/9-----12-11--|-----------------|
D|----/9-----12-11--|----/9-----12-11--|----/9-----12-11--|-----------------|
A|-----------10--9--|-----------10--9--|-----------10--9--|---2-2-2---------|
E|-0-------0--------|-0-------0--------|-0-------0--------|-3^0-0-0-3-03-03-|

           pm                 pm                 pm                         
G|------------------|------------------|------------------|-----------------|
D|------------------|------------------|------------------|-----------------|
A|-----7\-----------|-----7\-----------|-----7\-----------|-----------------|
E|-0-------0--3--2--|-0-------0--3--2--|-0-------0--3--2--|-3^0-0-0-3-03-03-|


************************************

| (n)  Ghost note
| /    Slide up
| \    Slide down
  

************************************
Suggest correction
comments
print report bad tab
2 comments total.
-2 reply
irontremelo 51 Feb 28, 2007 02:37 PM

nice work on the intro

+1 reply
acid eaters 10 Jun 29, 2008 03:40 PM

greta tab overall

guest
You may want to rate the tab now too:
select rating
Wanna post a correction for this tab? Suggest correction