Oops, an error
Loading. Please wait.

Dominion Bass Tab

4 views 1 this week
no commentswrite comment
1 2 3 4 5
3 more votes to show rating
add to favorites
launch autoscroll
font size
0
reset
guitar tuner
Autoscroll
slow
fast
+/-
esc
set tempo
stop
Help us to improve Ultimate-Guitar.com Take our survey!
×
Author
Difficulty
Tuning
novice
D# G# C# F# A# D#
                            DANZIG - DOMINION

Tabbed by: Rottney (reconssuck)
E-mail: reconssuck@hotmail.de

Artist: Danzig
Song: Dominion
Album: Danzig 4p (1994)
Bassist: Eerie Von


Tuning: Half-Step Down 





[Intro and Verse] x12

F#|---------------------------------------------|
C#|---------------------------------------------|
G#|-----7--7--7--7--7--7--7--7--7--7--7--7--7---|
D#|-0-------------------------------------------|


[Pre Chorus] x2

F#|------------------------------------------------------------------------------|
C#|------------------------------------------------------------------------------|
G#|-------------------------------------------7--7--7--7--7--7--7--7--7--7--7--7-|
D#|-3--3--3--3--3--3---2--2--2--2--2--2---0--------------------------------------|



[Verse] x8

F#|---------------------------------------------|
C#|---------------------------------------------|
G#|-----7--7--7--7--7--7--7--7--7--7--7--7--7---|
D#|-0-------------------------------------------|


[Pre Chorus] x2

F#|------------------------------------------------------------------------------|
C#|------------------------------------------------------------------------------|
G#|-------------------------------------------7--7--7--7--7--7--7--7--7--7--7--7-|
D#|-3--3--3--3--3--3---2--2--2--2--2--2---0--------------------------------------|


[Chorus] x2

F#|----------------------------------------------------------------------------------|
C#|----------------------------------------------------------------------------------|
G#|-----------------------------------------------------------------7--7--7--7--7--7-|
D#|-5--5--5--5--5--5--5--5--5--5--5--5--5--5---3--3--3--3--3--3--3-------------------|


F#|----------------------------------------------------------------------------------|
C#|----------------------------------------------------------------------------------|
G#|------------------------------------------------7--7--7--7--7--7--7--7--7--7--7--7|
D#|-5--5--5--5--5--5--5--5--5--5--5--5--5--5---0-------------------------------------|

[Verse] x8

F#|---------------------------------------------|
C#|---------------------------------------------|
G#|-----7--7--7--7--7--7--7--7--7--7--7--7--7---|
D#|-0-------------------------------------------|

[Pre Chorus] x2

F#|------------------------------------------------------------------------------|
C#|------------------------------------------------------------------------------|
G#|-------------------------------------------7--7--7--7--7--7--7--7--7--7--7--7-|
D#|-3--3--3--3--3--3---2--2--2--2--2--2---0--------------------------------------|


[Chorus] x2

F#|----------------------------------------------------------------------------------|
C#|----------------------------------------------------------------------------------|
G#|-----------------------------------------------------------------7--7--7--7--7--7-|
D#|-5--5--5--5--5--5--5--5--5--5--5--5--5--5---3--3--3--3--3--3--3-------------------|


F#|----------------------------------------------------------------------------------|
C#|----------------------------------------------------------------------------------|
G#|------------------------------------------------7--7--7--7--7--7--7--7--7--7--7--7|
D#|-5--5--5--5--5--5--5--5--5--5--5--5--5--5---0-------------------------------------|

[Verse] x8

F#|---------------------------------------------|
C#|---------------------------------------------|
G#|-----7--7--7--7--7--7--7--7--7--7--7--7--7---|
D#|-0-------------------------------------------|

That's all.
Enjoy and Rate.
Suggest correction
Give kudos to tab author, rate the tab!
1 2 3 4 5
comments
print report bad tab
guest
You may want to rate the tab now too:
select rating
Wanna post a correction for this tab? Suggest correction