Oops, an error
Loading. Please wait.

End Of Time Bass Tab

16 views 1 this week
no commentswrite comment
1 2 3 4 5
3 more votes to show rating
add to favorites
launch autoscroll
font size
0
reset
guitar tuner
Autoscroll
slow
fast
+/-
esc
set tempo
stop
Help us to improve Ultimate-Guitar.com Take our survey!
×
Author
Difficulty
novice
About this tab version
In the Pre Verse you can also play open strings instead of Dead Notes. Also you can play dead notes instead of open strings in the verse, following the guitars rhythm, although on the recorded version it is straight eigth note flurry. Was this info helpful? Yes No
                             DANZIG - END OF TIME

Tabbed by: Rottney (reconssuck)
E-mail: reconssuck@hotmail.de

Artist: Danzig
Song: End Of Time
Album: Danzig (self titled)
Bassist: Eerie Von


Tuning: Standard (EADG)




[Intro] (Bass is silent during arpeggiated guitar intro, during last part play)

G|---------------------------------------------------------------------------|
D|---------------------------------------------------------------------------|
A|------------------3-3-3-3--3--5-5-5-5--5--3-3-3-3--3-----------------------|
E|-15/--0-0-0-0--0-----------------------------------------------------------|

G|---------------------------------------------------------------------------|
D|---------------------------------------------------------------------------|
A|-------------3-3-3-3--3--5-5-5-5--5--2-2-2-2-2-2-2-2-2-2-2-2-2-------------|
E|-0-0-0-0--0----------------------------------------------------------------|


[Pre-Verse]

G|---------------------------------------------------------------------------|
D|---------------------------------------------------------------------------|
A|---------------------------------------------------------------------------|
E|-0-x-x--3-x-x-3---1-x-x-5-x-x-5---0-x-x--3-x-x-3---1-x-x-5-x-5-x-5---------|



[Verse] x2

G|---------------------------------------------------------------------------|
D|---------------------------------------------------------------------------|
A|---------------------------------------------------------------------------|
E|-0-0-0-0-0-0-0-0--3-3-3-3-3-3-3-3--1-1-1-1-1-1-1-1--5-5-5-5-5-5-5-5--------|



[Chorus] x2

G|---------------------------------------------------------------------------|
D|---------------------------------------------------------------------------|
A|----------------3-3-3-3-3-3-3--2-2-2-2-2-2-2--3-3-3-3-3-3-3----------------|
E|-0-0-0-0-0-0-0-------------------------------------------------------------|


[Pre-Verse]

G|---------------------------------------------------------------------------|
D|---------------------------------------------------------------------------|
A|---------------------------------------------------------------------------|
E|-0-x-x--3-x-x-3---1-x-x-5-x-x-5---0-x-x--3-x-x-3---1-x-x-5-x-5-x-5---------|


[Verse] x2

G|---------------------------------------------------------------------------|
D|---------------------------------------------------------------------------|
A|---------------------------------------------------------------------------|
E|-0-0-0-0-0-0-0-0--3-3-3-3-3-3-3-3--1-1-1-1-1-1-1-1--5-5-5-5-5-5-5-5--------|


[Chorus] x2

G|---------------------------------------------------------------------------|
D|---------------------------------------------------------------------------|
A|----------------3-3-3-3-3-3-3--2-2-2-2-2-2-2--3-3-3-3-3-3-3----------------|
E|-0-0-0-0-0-0-0-------------------------------------------------------------|


[Chorus Continuation]

G|---------------------------------------------------------------------------|
D|---------------------------------------------------------------------------|
A|-------------3-3-3-3--3--5-5-5-5--5--3-3-3-3--3----------------------------|
E|-0-0-0-0--0----------------------------------------------------------------|

G|---------------------------------------------------------------------------|
D|---------------------------------------------------------------------------|
A|-------------3-3-3-3--3--5-5-5-5--5--2-2-2-2-2-2-2-2-2-2-2-2-2-------------|
E|-0-0-0-0--0----------------------------------------------------------------|


[Verse] x4

G|---------------------------------------------------------------------------|
D|---------------------------------------------------------------------------|
A|---------------------------------------------------------------------------|
E|-0-0-0-0-0-0-0-0--3-3-3-3-3-3-3-3--1-1-1-1-1-1-1-1--5-5-5-5-5-5-5-5--------|

[Chorus] x2

G|---------------------------------------------------------------------------|
D|---------------------------------------------------------------------------|
A|----------------3-3-3-3-3-3-3--2-2-2-2-2-2-2--3-3-3-3-3-3-3----------------|
E|-0-0-0-0-0-0-0-------------------------------------------------------------|


[Chorus Continuation 2] x3

G|---------------------------------------------------------------------------|
D|---------------------------------------------------------------------------|
A|-------------3-3-3-3--3--5-5-5-5--5--3-3-3-3--3----------------------------|
E|-0-0-0-0--0----------------------------------------------------------------|

[Chorus Continuation 3]

G|---------------------------------------------------------------------------|
D|---------------------------------------------------------------------------|
A|-------------3-3-3-3--3--5-5-5-5--5--3-3-3-3--3-3-3-3-3-3-3-3-3------------|
E|-0-0-0-0--0-------------------------------------------------------0--------|







************************************
| x   Dead note
| /   Slide up

************************************

That's all.
Enjoy and Rate.
Suggest correction
Give kudos to tab author, rate the tab!
1 2 3 4 5
comments
print report bad tab
guest
You may want to rate the tab now too:
select rating
Wanna post a correction for this tab? Suggest correction