Oops, an error
Loading. Please wait.

God Of Light Bass Tab

7 views 1 this week
no commentswrite comment
1 2 3 4 5
3 more votes to show rating
add to favorites
launch autoscroll
font size
0
reset
guitar tuner
Autoscroll
slow
fast
+/-
esc
set tempo
stop
Help us to improve Ultimate-Guitar.com Take our survey!
×
Author
Difficulty
Tuning
novice
D# G# C# F# A# D#
About this tab version
In the verse follow the palm muted guitar notes. In the verse variation play root notes throughout the whole thing. Was this info helpful? Yes No
                             DANZIG - GOD OF LIGHT

Tabbed by: Rottney (reconssuck)
E-mail: reconssuck@hotmail.de

Artist: Danzig
Song: God Of Light
Album: Danzig: 777 I Luciferi
Bassist: Howie Pyro

Tuning: Half-Step Down



[Verse] x4  

F#|--------|-----------|--------|----------|
C#|--------|-----------|--------|----------|
G#|--------|-----------|--------|----------|
D#|-0-0-0--|--0-0-0-0--|-0-0-0--|-0-0-0-1--|

[Verse Variation] x4  

F#|---------|---------|---------|----------|
C#|---------|---------|---------|----------|
G#|---------|---------|---------|----------|
D#|-0-0-0-0-|-0-0-0-0-|-0-0-0-0-|-0-0-0-1--|


[Chorus]

F#|------------------------|--------------------|-------------------------|--------------|
C#|------------------------|--------------------|-------------------------|--------------|
G#|-7---5------------------|-7---5--------------|--7---5------------------|--7---5-------|
D#|---------7---5---3---0--|---------7---5---3--|-----------7---5---3--0--|----------1---|


[Verse] x4

F#|--------|-----------|--------|----------|
C#|--------|-----------|--------|----------|
G#|--------|-----------|--------|----------|
D#|-0-0-0--|--0-0-0-0--|-0-0-0--|-0-0-0-1--|

[Verse Variation] x4

F#|---------|---------|---------|----------|
C#|---------|---------|---------|----------|
G#|---------|---------|---------|----------|
D#|-0-0-0-0-|-0-0-0-0-|-0-0-0-0-|-0-0-0-1--|

[Chorus]

F#|------------------------|--------------------|-------------------------|--------------|
C#|------------------------|--------------------|-------------------------|--------------|
G#|-7---5------------------|-7---5--------------|--7---5------------------|--7---5-------|
D#|---------7---5---3---0--|---------7---5---3--|-----------7---5---3--0--|----------1---|


[Verse] x4

F#|--------|-----------|--------|----------|
C#|--------|-----------|--------|----------|
G#|--------|-----------|--------|----------|
D#|-0-0-0--|--0-0-0-0--|-0-0-0--|-0-0-0-1--|

[Verse Variation] x4

F#|---------|---------|---------|----------|
C#|---------|---------|---------|----------|
G#|---------|---------|---------|----------|
D#|-0-0-0-0-|-0-0-0-0-|-0-0-0-0-|-0-0-0-1--|

[Chorus]

F#|------------------------|--------------------|-------------------------|--------------|
C#|------------------------|--------------------|-------------------------|--------------|
G#|-7---5------------------|-7---5--------------|--7---5------------------|--7---5-------|
D#|---------7---5---3---0--|---------7---5---3--|-----------7---5---3--0--|----------1---|

[Verse] x4

F#|--------|-----------|--------|----------|
C#|--------|-----------|--------|----------|
G#|--------|-----------|--------|----------|
D#|-0-0-0--|--0-0-0-0--|-0-0-0--|-0-0-0-1--|

[Verse Variation] x4

F#|---------|---------|---------|----------|
C#|---------|---------|---------|----------|
G#|---------|---------|---------|----------|
D#|-0-0-0-0-|-0-0-0-0-|-0-0-0-0-|-0-0-0-1--|

[Chorus]

F#|------------------------|--------------------|-------------------------|--------------|
C#|------------------------|--------------------|-------------------------|--------------|
G#|-7---5------------------|-7---5--------------|--7---5------------------|--7---5-------|
D#|---------7---5---3---0--|---------7---5---3--|-----------7---5---3--0--|----------1---|

let last note ring out.


That's all.
Enjoy and Rate.






Suggest correction
Give kudos to tab author, rate the tab!
1 2 3 4 5
comments
print report bad tab
guest
You may want to rate the tab now too:
select rating
Wanna post a correction for this tab? Suggest correction