Oops, an error
Loading. Please wait.

Heart Of The Devil Bass Tab

version 2
version 2

Whole song

  • The other Bass tab does not have the Chorus Variat... Show more
4 views 1 this week
no commentswrite comment
1 2 3 4 5
3 more votes to show rating
add to favorites
launch autoscroll
font size
0
reset
guitar tuner
Autoscroll
slow
fast
+/-
esc
set tempo
stop
Help us to improve Ultimate-Guitar.com Take our survey!
×
Author
Difficulty
Tuning
novice
D# G# C# F# A# D#
About this tab version
The other Bass tab does not have the Chorus Variation tabbed out which is played near the end of the song, nor does it indicate how many times the parts should be repeated. Was this info helpful? Yes No
                             DANZIG - Heart Of The Devil

Tabbed by: Rottney (reconssuck)
E-mail: reconssuck@hotmail.de

Artist: Danzig
Song: Heart Of The Devil
Album: Danzig III How The Gods Kill 
Bassist: Eerie Von


Tuning: Half-Step-Down

(Bass is silent during intro)

[Verse] x16

F#|--------------------------|
C#|--------------------------|
G#|-7-----7-----7-8-8-8-8-8--|
D#|---0-0---0-0--------------|


[Chorus] x2

F#|----------------------|
C#|----------------------|
G#|----------------------|
D#|-5-------3-3-3-3-3-3--|


[Verse] x10

F#|--------------------------|
C#|--------------------------|
G#|-7-----7-----7-8-8-8-8-8--|
D#|---0-0---0-0--------------|


[Chorus] x2

F#|----------------------|
C#|----------------------|
G#|----------------------|
D#|-5-------3-3-3-3-3-3--|

[Verse] x2

F#|--------------------------|
C#|--------------------------|
G#|-7-----7-----7-8-8-8-8-8--|
D#|---0-0---0-0--------------|

[Chorus] x2

F#|----------------------|
C#|----------------------|
G#|----------------------|
D#|-5-------3-3-3-3-3-3--|


[Verse] x8 (during guitar solo)

F#|--------------------------|
C#|--------------------------|
G#|-7-----7-----7-8-8-8-8-8--|
D#|---0-0---0-0--------------|

[Chorus] x2

F#|----------------------|
C#|----------------------|
G#|----------------------|
D#|-5-------3-3-3-3-3-3--|

[Verse] x10

F#|--------------------------|
C#|--------------------------|
G#|-7-----7-----7-8-8-8-8-8--|
D#|---0-0---0-0--------------|

[Chorus] x2

F#|----------------------|
C#|----------------------|
G#|----------------------|
D#|-5-------3-3-3-3-3-3--|

[Verse] x2

F#|--------------------------|
C#|--------------------------|
G#|-7-----7-----7-8-8-8-8-8--|
D#|---0-0---0-0--------------|


[Chorus] x2

F#|----------------------|
C#|----------------------|
G#|----------------------|
D#|-5-------3-3-3-3-3-3--|


[Verse] x2

F#|--------------------------|
C#|--------------------------|
G#|-7-----7-----7-8-8-8-8-8--|
D#|---0-0---0-0--------------|

[Chorus Variation] x2

F#|--------------|
C#|--------------|
G#|--------------|
D#|-5--7--8--10--|

[Verse] x2

F#|--------------------------|
C#|--------------------------|
G#|-7-----7-----7-8-8-8-8-8--|
D#|---0-0---0-0--------------|

[Chorus Variation] x2

F#|--------------|
C#|--------------|
G#|--------------|
D#|-5--7--8--10--|


[Outro]

F#|--------|
C#|--------|
G#|--------|
D#|-0------|


That's all.
Enjoy and Rate
Suggest correction
Give kudos to tab author, rate the tab!
1 2 3 4 5
comments
print report bad tab
guest
You may want to rate the tab now too:
select rating
Wanna post a correction for this tab? Suggest correction